ISO-10303-21;
HEADER;
FILE_DESCRIPTION (( 'STEP AP203' ),
    '1' );
FILE_NAME ('Web Model 66634_66634.step',
    '2019-10-15T14:24:43',
    ( '' ),
    ( '' ),
    'SwSTEP 2.0',
    'SolidWorks 2018',
    '' );
FILE_SCHEMA (( 'CONFIG_CONTROL_DESIGN' ));
ENDSEC;

DATA;
#1 = LINE ( 'NONE', #210, #157 ) ;
#2 = AXIS2_PLACEMENT_3D ( 'NONE', #115, #182, #330 ) ;
#3 = VECTOR ( 'NONE', #233, 1000.000000000000000 ) ;
#4 = PERSON_AND_ORGANIZATION ( #204, #283 ) ;
#5 = CARTESIAN_POINT ( 'NONE',  ( -6.613092715395706481E-16, 25.39999999999999858, 12.69999999999999929 ) ) ;
#6 = ORIENTED_EDGE ( 'NONE', *, *, #175, .T. ) ;
#7 = PERSON_AND_ORGANIZATION_ROLE ( 'creator' ) ;
#8 = DIRECTION ( 'NONE',  ( -0.0000000000000000000, -0.0000000000000000000, -1.000000000000000000 ) ) ;
#9 = DATE_AND_TIME ( #200, #238 ) ;
#10 = SECURITY_CLASSIFICATION_LEVEL ( 'unclassified' ) ;
#11 = DIRECTION ( 'NONE',  ( -0.0000000000000000000, -0.0000000000000000000, -1.000000000000000000 ) ) ;
#12 = VERTEX_POINT ( 'NONE', #99 ) ;
#13 = EDGE_LOOP ( 'NONE', ( #362, #51, #387, #71, #286 ) ) ;
#14 = CARTESIAN_POINT ( 'NONE',  ( -25.39999999999999858, -3.110602869834276076E-15, -12.69999999999999929 ) ) ;
#15 = FACE_OUTER_BOUND ( 'NONE', #29, .T. ) ;
#16 = COORDINATED_UNIVERSAL_TIME_OFFSET ( 5, 0, .BEHIND. ) ;
#17 = UNCERTAINTY_MEASURE_WITH_UNIT (LENGTH_MEASURE( 1.000000000000000082E-05 ), #247, 'distance_accuracy_value', 'NONE');
#18 = CARTESIAN_POINT ( 'NONE',  ( -35.91993511141561157, 25.39746178758036166, 12.69999999999999929 ) ) ;
#19 = VERTEX_POINT ( 'NONE', #310 ) ;
#20 = VECTOR ( 'NONE', #112, 1000.000000000000227 ) ;
#21 = DIRECTION ( 'NONE',  ( -0.3826846125863949122, -0.9238790436467324563, 0.0000000000000000000 ) ) ;
#22 = ADVANCED_FACE ( 'NONE', ( #222 ), #184, .F. ) ;
#23 = ORIENTED_EDGE ( 'NONE', *, *, #239, .F. ) ;
#24 = ORIENTED_EDGE ( 'NONE', *, *, #32, .F. ) ;
#25 = PLANE ( 'NONE',  #355 ) ;
#26 = LINE ( 'NONE', #358, #366 ) ;
#27 = CARTESIAN_POINT ( 'NONE',  ( -6.613092715395706481E-16, 25.39999999999999858, -12.69999999999999929 ) ) ;
#28 = AXIS2_PLACEMENT_3D ( 'NONE', #327, #111, #288 ) ;
#29 = EDGE_LOOP ( 'NONE', ( #81, #34, #338, #240 ) ) ;
#30 = VECTOR ( 'NONE', #234, 1000.000000000000000 ) ;
#31 = EDGE_CURVE ( 'NONE', #33, #252, #211, .T. ) ;
#32 = EDGE_CURVE ( 'NONE', #277, #110, #42, .T. ) ;
#33 = VERTEX_POINT ( 'NONE', #47 ) ;
#34 = ORIENTED_EDGE ( 'NONE', *, *, #49, .F. ) ;
#35 = ORIENTED_EDGE ( 'NONE', *, *, #88, .F. ) ;
#36 = LINE ( 'NONE', #340, #169 ) ;
#37 = VECTOR ( 'NONE', #156, 1000.000000000000000 ) ;
#38 = ORIENTED_EDGE ( 'NONE', *, *, #214, .T. ) ;
#39 = DATE_TIME_ROLE ( 'classification_date' ) ;
#40 = APPROVAL_DATE_TIME ( #307, #359 ) ;
#41 = CARTESIAN_POINT ( 'NONE',  ( 0.0000000000000000000, 0.0000000000000000000, 12.69999999999999929 ) ) ;
#42 = LINE ( 'NONE', #164, #101 ) ;
#43 = VERTEX_POINT ( 'NONE', #41 ) ;
#44 = VECTOR ( 'NONE', #360, 1000.000000000000114 ) ;
#45 = CARTESIAN_POINT ( 'NONE',  ( -25.39743490984866980, 35.91999999999999460, -12.69999999999999929 ) ) ;
#46 = AXIS2_PLACEMENT_3D ( 'NONE', #273, #168, #163 ) ;
#47 = CARTESIAN_POINT ( 'NONE',  ( -25.39743490984866980, 35.91999999999999460, 12.69999999999999929 ) ) ;
#48 = PLANE ( 'NONE',  #177 ) ;
#49 = EDGE_CURVE ( 'NONE', #252, #166, #268, .T. ) ;
#50 = EDGE_CURVE ( 'NONE', #105, #76, #313, .T. ) ;
#51 = ORIENTED_EDGE ( 'NONE', *, *, #198, .T. ) ;
#52 = EDGE_CURVE ( 'NONE', #326, #19, #63, .T. ) ;
#53 = ADVANCED_FACE ( 'NONE', ( #75 ), #255, .F. ) ;
#54 = LINE ( 'NONE', #213, #322 ) ;
#55 = LOCAL_TIME ( 10, 24, 43.00000000000000000, #125 ) ;
#56 = CARTESIAN_POINT ( 'NONE',  ( -6.613092715395706481E-16, 25.39999999999999858, 12.69999999999999929 ) ) ;
#57 = DIRECTION ( 'NONE',  ( -1.000000000000000000, 0.0000000000000000000, -0.0000000000000000000 ) ) ;
#58 = ORIENTED_EDGE ( 'NONE', *, *, #64, .F. ) ;
#59 = LINE ( 'NONE', #27, #73 ) ;
#60 = CARTESIAN_POINT ( 'NONE',  ( -35.91993511141561157, 25.39746178758036166, 12.69999999999999929 ) ) ;
#61 = DATE_AND_TIME ( #170, #370 ) ;
#62 = CC_DESIGN_APPROVAL ( #359, ( #299 ) ) ;
#63 = LINE ( 'NONE', #254, #282 ) ;
#64 = EDGE_CURVE ( 'NONE', #12, #277, #291, .T. ) ;
#65 = ORIENTED_EDGE ( 'NONE', *, *, #88, .T. ) ;
#66 = EDGE_CURVE ( 'NONE', #166, #19, #118, .T. ) ;
#67 = AXIS2_PLACEMENT_3D ( 'NONE', #383, #382, #381 ) ;
#68 = ADVANCED_FACE ( 'NONE', ( #257 ), #48, .T. ) ;
#69 = CARTESIAN_POINT ( 'NONE',  ( -6.613092715395706481E-16, 25.39999999999999858, -12.69999999999999929 ) ) ;
#70 = ORIENTED_EDGE ( 'NONE', *, *, #251, .T. ) ;
#71 = ORIENTED_EDGE ( 'NONE', *, *, #221, .T. ) ;
#72 = AXIS2_PLACEMENT_3D ( 'NONE', #347, #21, #107 ) ;
#73 = VECTOR ( 'NONE', #385, 1000.000000000000000 ) ;
#74 = APPLICATION_CONTEXT ( 'configuration controlled 3d designs of mechanical parts and assemblies' ) ;
#75 = FACE_OUTER_BOUND ( 'NONE', #87, .T. ) ;
#76 = VERTEX_POINT ( 'NONE', #352 ) ;
#77 = VERTEX_POINT ( 'NONE', #205 ) ;
#78 = FACE_OUTER_BOUND ( 'NONE', #235, .T. ) ;
#79 = VECTOR ( 'NONE', #139, 1000.000000000000114 ) ;
#80 = PRODUCT_DEFINITION ( 'UNKNOWN', '', #165, #312 ) ;
#81 = ORIENTED_EDGE ( 'NONE', *, *, #314, .T. ) ;
#82 = LINE ( 'NONE', #335, #351 ) ;
#83 = DIRECTION ( 'NONE',  ( 0.0000000000000000000, 0.0000000000000000000, -1.000000000000000000 ) ) ;
#84 = ORIENTED_EDGE ( 'NONE', *, *, #256, .T. ) ;
#85 = MANIFOLD_SOLID_BREP ( 'Boss-Extrude1', #278 ) ;
#86 = CARTESIAN_POINT ( 'NONE',  ( -25.39743490984866980, 35.91999999999999460, -12.69999999999999929 ) ) ;
#87 = EDGE_LOOP ( 'NONE', ( #298, #337, #325, #269 ) ) ;
#88 = EDGE_CURVE ( 'NONE', #121, #332, #97, .T. ) ;
#89 = DIRECTION ( 'NONE',  ( -0.0000000000000000000, -0.0000000000000000000, -1.000000000000000000 ) ) ;
#90 = ORIENTED_EDGE ( 'NONE', *, *, #220, .T. ) ;
#91 = ORIENTED_EDGE ( 'NONE', *, *, #134, .F. ) ;
#92 = FACE_OUTER_BOUND ( 'NONE', #176, .T. ) ;
#93 = APPROVAL_PERSON_ORGANIZATION ( #289, #181, #96 ) ;
#94 = CARTESIAN_POINT ( 'NONE',  ( -25.39999999999999858, -3.110602869834276076E-15, 12.69999999999999929 ) ) ;
#95 = APPROVAL ( #191, 'UNSPECIFIED' ) ;
#96 = APPROVAL_ROLE ( '' ) ;
#97 = LINE ( 'NONE', #236, #3 ) ;
#98 = ADVANCED_FACE ( 'NONE', ( #186 ), #178, .T. ) ;
#99 = CARTESIAN_POINT ( 'NONE',  ( -25.39743490984866980, 35.91999999999999460, 12.69999999999999929 ) ) ;
#100 = PERSON_AND_ORGANIZATION_ROLE ( 'creator' ) ;
#101 = VECTOR ( 'NONE', #8, 1000.000000000000000 ) ;
#102 = CARTESIAN_POINT ( 'NONE',  ( -25.39743490984866980, 35.91999999999999460, 12.69999999999999929 ) ) ;
#103 = CLOSED_SHELL ( 'NONE', ( #160, #68, #230, #262, #259 ) ) ;
#104 = DIRECTION ( 'NONE',  ( -1.000000000000000000, -1.224646799147352961E-16, 0.0000000000000000000 ) ) ;
#105 = VERTEX_POINT ( 'NONE', #231 ) ;
#106 = APPROVAL_DATE_TIME ( #9, #95 ) ;
#107 = DIRECTION ( 'NONE',  ( 0.9238790436467324563, -0.3826846125863949122, 0.0000000000000000000 ) ) ;
#108 = ORIENTED_EDGE ( 'NONE', *, *, #162, .T. ) ;
#109 = ORIENTED_EDGE ( 'NONE', *, *, #66, .F. ) ;
#110 = VERTEX_POINT ( 'NONE', #290 ) ;
#111 = DIRECTION ( 'NONE',  ( 0.0000000000000000000, 0.0000000000000000000, -1.000000000000000000 ) ) ;
#112 = DIRECTION ( 'NONE',  ( -0.9238790436467324563, 0.3826846125863949122, -0.0000000000000000000 ) ) ;
#113 = COORDINATED_UNIVERSAL_TIME_OFFSET ( 5, 0, .BEHIND. ) ;
#114 = PRODUCT ( 'Web Model 66634_66634', 'Web Model 66634_66634', '', ( #185 ) ) ;
#115 = CARTESIAN_POINT ( 'NONE',  ( -9.356301545485770604E-16, 35.91999999999999460, 12.69999999999999929 ) ) ;
#116 = CARTESIAN_POINT ( 'NONE',  ( -6.613092715395706481E-16, 25.39999999999999858, 12.69999999999999929 ) ) ;
#117 = AXIS2_PLACEMENT_3D ( 'NONE', #281, #199, #104 ) ;
#118 = LINE ( 'NONE', #14, #79 ) ;
#119 = DIRECTION ( 'NONE',  ( 0.0000000000000000000, 0.0000000000000000000, -1.000000000000000000 ) ) ;
#120 = PERSON_AND_ORGANIZATION ( #204, #283 ) ;
#121 = VERTEX_POINT ( 'NONE', #354 ) ;
#122 = DIRECTION ( 'NONE',  ( 0.7071055040325011642, 0.7071080583382871598, 0.0000000000000000000 ) ) ;
#123 = VECTOR ( 'NONE', #265, 1000.000000000000227 ) ;
#124 = LINE ( 'NONE', #324, #367 ) ;
#125 = COORDINATED_UNIVERSAL_TIME_OFFSET ( 5, 0, .BEHIND. ) ;
#126 = VECTOR ( 'NONE', #137, 1000.000000000000000 ) ;
#127 = CC_DESIGN_PERSON_AND_ORGANIZATION_ASSIGNMENT ( #120, #167, ( #114 ) ) ;
#128 = CARTESIAN_POINT ( 'NONE',  ( -25.39999999999999858, -3.110602869834276076E-15, 12.69999999999999929 ) ) ;
#129 = ADVANCED_FACE ( 'NONE', ( #192 ), #287, .F. ) ;
#130 = DIRECTION ( 'NONE',  ( -1.000000000000000000, -2.603579809210908100E-17, 0.0000000000000000000 ) ) ;
#131 = APPROVAL_ROLE ( '' ) ;
#132 = EDGE_LOOP ( 'NONE', ( #150, #35, #84, #341 ) ) ;
#133 = VERTEX_POINT ( 'NONE', #149 ) ;
#134 = EDGE_CURVE ( 'NONE', #19, #133, #250, .T. ) ;
#135 = APPLICATION_PROTOCOL_DEFINITION ( 'international standard', 'config_control_design', 1994, #368 ) ;
#136 = LINE ( 'NONE', #116, #305 ) ;
#137 = DIRECTION ( 'NONE',  ( 1.000000000000000000, 0.0000000000000000000, 0.0000000000000000000 ) ) ;
#138 =( NAMED_UNIT ( * ) PLANE_ANGLE_UNIT ( ) SI_UNIT ( $, .RADIAN. ) );
#139 = DIRECTION ( 'NONE',  ( 0.3826822521431653690, -0.9238800213743312284, -0.0000000000000000000 ) ) ;
#140 = CC_DESIGN_DATE_AND_TIME_ASSIGNMENT ( #61, #280, ( #80 ) ) ;
#141 = DIRECTION ( 'NONE',  ( 0.0000000000000000000, 1.000000000000000000, 0.0000000000000000000 ) ) ;
#142 = ADVANCED_BREP_SHAPE_REPRESENTATION ( 'Web Model 66634_66634', ( #85, #197, #46 ), #194 ) ;
#143 = PRODUCT_RELATED_PRODUCT_CATEGORY ( 'detail', '', ( #114 ) ) ;
#144 = ORIENTED_EDGE ( 'NONE', *, *, #318, .T. ) ;
#145 = CARTESIAN_POINT ( 'NONE',  ( -25.39743490984866980, 35.91999999999999460, 12.69999999999999929 ) ) ;
#146 = DIRECTION ( 'NONE',  ( 1.000000000000000000, 1.224646799147352961E-16, -0.0000000000000000000 ) ) ;
#147 = CALENDAR_DATE ( 2019, 15, 10 ) ;
#148 = APPROVAL_PERSON_ORGANIZATION ( #297, #95, #193 ) ;
#149 = CARTESIAN_POINT ( 'NONE',  ( 0.0000000000000000000, 0.0000000000000000000, -12.69999999999999929 ) ) ;
#150 = ORIENTED_EDGE ( 'NONE', *, *, #318, .F. ) ;
#151 = ORIENTED_EDGE ( 'NONE', *, *, #49, .T. ) ;
#152 = CC_DESIGN_APPROVAL ( #95, ( #80 ) ) ;
#153 = LINE ( 'NONE', #376, #30 ) ;
#154 = CARTESIAN_POINT ( 'NONE',  ( -25.39743490984866980, 35.91999999999999460, -12.69999999999999929 ) ) ;
#155 = DIRECTION ( 'NONE',  ( -1.000000000000000000, 0.0000000000000000000, -0.0000000000000000000 ) ) ;
#156 = DIRECTION ( 'NONE',  ( 1.000000000000000000, 0.0000000000000000000, 0.0000000000000000000 ) ) ;
#157 = VECTOR ( 'NONE', #244, 1000.000000000000000 ) ;
#158 = ORIENTED_EDGE ( 'NONE', *, *, #214, .F. ) ;
#159 = ORIENTED_EDGE ( 'NONE', *, *, #256, .F. ) ;
#160 = ADVANCED_FACE ( 'NONE', ( #78 ), #25, .T. ) ;
#161 = DIRECTION ( 'NONE',  ( 0.9238800213743312284, 0.3826822521431653690, -0.0000000000000000000 ) ) ;
#162 = EDGE_CURVE ( 'NONE', #43, #133, #124, .T. ) ;
#163 = DIRECTION ( 'NONE',  ( 1.000000000000000000, 0.0000000000000000000, 0.0000000000000000000 ) ) ;
#164 = CARTESIAN_POINT ( 'NONE',  ( -9.356301545485770604E-16, 35.91999999999999460, 12.69999999999999929 ) ) ;
#165 = PRODUCT_DEFINITION_FORMATION_WITH_SPECIFIED_SOURCE ( 'ANY', '', #114, .NOT_KNOWN. ) ;
#166 = VERTEX_POINT ( 'NONE', #348 ) ;
#167 = PERSON_AND_ORGANIZATION_ROLE ( 'design_owner' ) ;
#168 = DIRECTION ( 'NONE',  ( 0.0000000000000000000, 0.0000000000000000000, 1.000000000000000000 ) ) ;
#169 = VECTOR ( 'NONE', #217, 1000.000000000000000 ) ;
#170 = CALENDAR_DATE ( 2019, 15, 10 ) ;
#171 = CC_DESIGN_PERSON_AND_ORGANIZATION_ASSIGNMENT ( #207, #7, ( #80 ) ) ;
#172 = FACE_OUTER_BOUND ( 'NONE', #13, .T. ) ;
#173 = AXIS2_PLACEMENT_3D ( 'NONE', #331, #119, #155 ) ;
#174 = CARTESIAN_POINT ( 'NONE',  ( 0.0000000000000000000, 0.0000000000000000000, 12.69999999999999929 ) ) ;
#175 = EDGE_CURVE ( 'NONE', #110, #332, #153, .T. ) ;
#176 = EDGE_LOOP ( 'NONE', ( #248, #349, #260, #151 ) ) ;
#177 = AXIS2_PLACEMENT_3D ( 'NONE', #369, #195, #261 ) ;
#178 = PLANE ( 'NONE',  #28 ) ;
#179 = PLANE ( 'NONE',  #67 ) ;
#180 = DIRECTION ( 'NONE',  ( -0.9238790436467324563, 0.3826846125863949122, 0.0000000000000000000 ) ) ;
#181 = APPROVAL ( #344, 'UNSPECIFIED' ) ;
#182 = DIRECTION ( 'NONE',  ( 1.000000000000000000, 2.607612956359378123E-17, -0.0000000000000000000 ) ) ;
#183 = ORIENTED_EDGE ( 'NONE', *, *, #271, .F. ) ;
#184 = PLANE ( 'NONE',  #228 ) ;
#185 = MECHANICAL_CONTEXT ( 'NONE', #368, 'mechanical' ) ;
#186 = FACE_OUTER_BOUND ( 'NONE', #285, .T. ) ;
#187 =( NAMED_UNIT ( * ) SI_UNIT ( $, .STERADIAN. ) SOLID_ANGLE_UNIT ( ) );
#188 = VECTOR ( 'NONE', #317, 1000.000000000000000 ) ;
#189 = AXIS2_PLACEMENT_3D ( 'NONE', #60, #336, #122 ) ;
#190 = ORIENTED_EDGE ( 'NONE', *, *, #251, .F. ) ;
#191 = APPROVAL_STATUS ( 'not_yet_approved' ) ;
#192 = FACE_OUTER_BOUND ( 'NONE', #227, .T. ) ;
#193 = APPROVAL_ROLE ( '' ) ;
#194 =( GEOMETRIC_REPRESENTATION_CONTEXT ( 3 ) GLOBAL_UNCERTAINTY_ASSIGNED_CONTEXT ( ( #17 ) ) GLOBAL_UNIT_ASSIGNED_CONTEXT ( ( #247, #138, #187 ) ) REPRESENTATION_CONTEXT ( 'NONE', 'WORKASPACE' ) );
#195 = DIRECTION ( 'NONE',  ( -0.3826846125863949122, -0.9238790436467324563, 0.0000000000000000000 ) ) ;
#196 = ORIENTED_EDGE ( 'NONE', *, *, #220, .F. ) ;
#197 = MANIFOLD_SOLID_BREP ( 'Boss-Extrude2', #103 ) ;
#198 = EDGE_CURVE ( 'NONE', #77, #33, #263, .T. ) ;
#199 = DIRECTION ( 'NONE',  ( -1.224646799147352961E-16, 1.000000000000000000, 0.0000000000000000000 ) ) ;
#200 = CALENDAR_DATE ( 2019, 15, 10 ) ;
#201 = PERSON_AND_ORGANIZATION ( #204, #283 ) ;
#202 = CC_DESIGN_APPROVAL ( #181, ( #165 ) ) ;
#203 = ADVANCED_FACE ( 'NONE', ( #172 ), #320, .F. ) ;
#204 = PERSON ( 'UNSPECIFIED', 'UNSPECIFIED', 'UNSPECIFIED', ('UNSPECIFIED'), ('UNSPECIFIED'), ('UNSPECIFIED') ) ;
#205 = CARTESIAN_POINT ( 'NONE',  ( -6.613092715395706481E-16, 25.39999999999999858, 12.69999999999999929 ) ) ;
#206 = LINE ( 'NONE', #266, #44 ) ;
#207 = PERSON_AND_ORGANIZATION ( #204, #283 ) ;
#208 = ORIENTED_EDGE ( 'NONE', *, *, #175, .F. ) ;
#209 = DIRECTION ( 'NONE',  ( -0.0000000000000000000, -0.0000000000000000000, -1.000000000000000000 ) ) ;
#210 = CARTESIAN_POINT ( 'NONE',  ( -35.91993511141561157, 25.39746178758036166, -12.69999999999999929 ) ) ;
#211 = LINE ( 'NONE', #342, #218 ) ;
#212 = FACE_OUTER_BOUND ( 'NONE', #272, .T. ) ;
#213 = CARTESIAN_POINT ( 'NONE',  ( -25.39743490984866980, 35.91999999999999460, 12.69999999999999929 ) ) ;
#214 = EDGE_CURVE ( 'NONE', #77, #105, #306, .T. ) ;
#215 = SHAPE_DEFINITION_REPRESENTATION ( #245, #142 ) ;
#216 = AXIS2_PLACEMENT_3D ( 'NONE', #174, #83, #57 ) ;
#217 = DIRECTION ( 'NONE',  ( 1.000000000000000000, 1.224646799147352961E-16, -0.0000000000000000000 ) ) ;
#218 = VECTOR ( 'NONE', #308, 1000.000000000000000 ) ;
#219 = ORIENTED_EDGE ( 'NONE', *, *, #314, .F. ) ;
#220 = EDGE_CURVE ( 'NONE', #284, #110, #279, .T. ) ;
#221 = EDGE_CURVE ( 'NONE', #252, #326, #206, .T. ) ;
#222 = FACE_OUTER_BOUND ( 'NONE', #304, .T. ) ;
#223 = ORIENTED_EDGE ( 'NONE', *, *, #356, .F. ) ;
#224 = DIRECTION ( 'NONE',  ( 2.603579809210908100E-17, -1.000000000000000000, 0.0000000000000000000 ) ) ;
#225 = APPLICATION_PROTOCOL_DEFINITION ( 'international standard', 'config_control_design', 1994, #74 ) ;
#226 = APPROVAL_DATE_TIME ( #267, #181 ) ;
#227 = EDGE_LOOP ( 'NONE', ( #350, #223, #293, #38 ) ) ;
#228 = AXIS2_PLACEMENT_3D ( 'NONE', #5, #130, #224 ) ;
#229 = LOCAL_TIME ( 10, 24, 43.00000000000000000, #264 ) ;
#230 = ADVANCED_FACE ( 'NONE', ( #364 ), #295, .T. ) ;
#231 = CARTESIAN_POINT ( 'NONE',  ( -6.613092715395706481E-16, 25.39999999999999858, -12.69999999999999929 ) ) ;
#232 = VECTOR ( 'NONE', #384, 1000.000000000000000 ) ;
#233 = DIRECTION ( 'NONE',  ( -0.0000000000000000000, -0.0000000000000000000, -1.000000000000000000 ) ) ;
#234 = DIRECTION ( 'NONE',  ( 2.607612956359378123E-17, -1.000000000000000000, 0.0000000000000000000 ) ) ;
#235 = EDGE_LOOP ( 'NONE', ( #196, #361, #380, #303 ) ) ;
#236 = CARTESIAN_POINT ( 'NONE',  ( -6.613092715395706481E-16, 25.39999999999999858, 12.69999999999999929 ) ) ;
#237 = VECTOR ( 'NONE', #146, 1000.000000000000000 ) ;
#238 = LOCAL_TIME ( 10, 24, 43.00000000000000000, #372 ) ;
#239 = EDGE_CURVE ( 'NONE', #277, #121, #26, .T. ) ;
#240 = ORIENTED_EDGE ( 'NONE', *, *, #356, .T. ) ;
#241 = CARTESIAN_POINT ( 'NONE',  ( -9.356301545485770604E-16, 35.91999999999999460, 12.69999999999999929 ) ) ;
#242 = AXIS2_PLACEMENT_3D ( 'NONE', #128, #161, #365 ) ;
#243 = EDGE_CURVE ( 'NONE', #12, #284, #82, .T. ) ;
#244 = DIRECTION ( 'NONE',  ( -0.7071055040325011642, -0.7071080583382871598, -0.0000000000000000000 ) ) ;
#245 = PRODUCT_DEFINITION_SHAPE ( 'NONE', 'NONE',  #80 ) ;
#246 = PLANE ( 'NONE',  #189 ) ;
#247 =( LENGTH_UNIT ( ) NAMED_UNIT ( * ) SI_UNIT ( .MILLI., .METRE. ) );
#248 = ORIENTED_EDGE ( 'NONE', *, *, #66, .T. ) ;
#249 = APPROVAL_STATUS ( 'not_yet_approved' ) ;
#250 = LINE ( 'NONE', #378, #237 ) ;
#251 = EDGE_CURVE ( 'NONE', #133, #105, #59, .T. ) ;
#252 = VERTEX_POINT ( 'NONE', #292 ) ;
#253 = EDGE_LOOP ( 'NONE', ( #58, #159, #23 ) ) ;
#254 = CARTESIAN_POINT ( 'NONE',  ( -25.39999999999999858, -3.110602869834276076E-15, 12.69999999999999929 ) ) ;
#255 = PLANE ( 'NONE',  #117 ) ;
#256 = EDGE_CURVE ( 'NONE', #121, #12, #136, .T. ) ;
#257 = FACE_OUTER_BOUND ( 'NONE', #132, .T. ) ;
#258 = CC_DESIGN_PERSON_AND_ORGANIZATION_ASSIGNMENT ( #377, #100, ( #165 ) ) ;
#259 = ADVANCED_FACE ( 'NONE', ( #212 ), #179, .T. ) ;
#260 = ORIENTED_EDGE ( 'NONE', *, *, #221, .F. ) ;
#261 = DIRECTION ( 'NONE',  ( 0.9238790436467324563, -0.3826846125863949122, 0.0000000000000000000 ) ) ;
#262 = ADVANCED_FACE ( 'NONE', ( #363 ), #301, .F. ) ;
#263 = LINE ( 'NONE', #145, #20 ) ;
#264 = COORDINATED_UNIVERSAL_TIME_OFFSET ( 5, 0, .BEHIND. ) ;
#265 = DIRECTION ( 'NONE',  ( -0.9238790436467324563, 0.3826846125863949122, 0.0000000000000000000 ) ) ;
#266 = CARTESIAN_POINT ( 'NONE',  ( -25.39999999999999858, -3.110602869834276076E-15, 12.69999999999999929 ) ) ;
#267 = DATE_AND_TIME ( #357, #353 ) ;
#268 = LINE ( 'NONE', #18, #188 ) ;
#269 = ORIENTED_EDGE ( 'NONE', *, *, #52, .T. ) ;
#270 = DIRECTION ( 'NONE',  ( -0.0000000000000000000, -0.0000000000000000000, -1.000000000000000000 ) ) ;
#271 = EDGE_CURVE ( 'NONE', #43, #77, #311, .T. ) ;
#272 = EDGE_LOOP ( 'NONE', ( #90, #6, #144 ) ) ;
#273 = CARTESIAN_POINT ( 'NONE',  ( 0.0000000000000000000, 0.0000000000000000000, 0.0000000000000000000 ) ) ;
#274 = APPROVAL_PERSON_ORGANIZATION ( #316, #359, #131 ) ;
#275 = CC_DESIGN_PERSON_AND_ORGANIZATION_ASSIGNMENT ( #4, #309, ( #165 ) ) ;
#276 = PERSON_AND_ORGANIZATION_ROLE ( 'classification_officer' ) ;
#277 = VERTEX_POINT ( 'NONE', #241 ) ;
#278 = CLOSED_SHELL ( 'NONE', ( #22, #129, #319, #374, #53, #203, #98 ) ) ;
#279 = LINE ( 'NONE', #154, #37 ) ;
#280 = DATE_TIME_ROLE ( 'creation_date' ) ;
#281 = CARTESIAN_POINT ( 'NONE',  ( 0.0000000000000000000, 0.0000000000000000000, 12.69999999999999929 ) ) ;
#282 = VECTOR ( 'NONE', #11, 1000.000000000000000 ) ;
#283 = ORGANIZATION ( 'UNSPECIFIED', 'UNSPECIFIED', '' ) ;
#284 = VERTEX_POINT ( 'NONE', #86 ) ;
#285 = EDGE_LOOP ( 'NONE', ( #190, #91, #109, #219, #315 ) ) ;
#286 = ORIENTED_EDGE ( 'NONE', *, *, #371, .T. ) ;
#287 = PLANE ( 'NONE',  #72 ) ;
#288 = DIRECTION ( 'NONE',  ( -1.000000000000000000, 0.0000000000000000000, -0.0000000000000000000 ) ) ;
#289 = PERSON_AND_ORGANIZATION ( #204, #283 ) ;
#290 = CARTESIAN_POINT ( 'NONE',  ( -9.356301545485770604E-16, 35.91999999999999460, -12.69999999999999929 ) ) ;
#291 = LINE ( 'NONE', #102, #126 ) ;
#292 = CARTESIAN_POINT ( 'NONE',  ( -35.91993511141561157, 25.39746178758036166, 12.69999999999999929 ) ) ;
#293 = ORIENTED_EDGE ( 'NONE', *, *, #198, .F. ) ;
#294 = LINE ( 'NONE', #328, #123 ) ;
#295 = PLANE ( 'NONE',  #2 ) ;
#296 = DIRECTION ( 'NONE',  ( 2.607612956359378123E-17, -1.000000000000000000, 0.0000000000000000000 ) ) ;
#297 = PERSON_AND_ORGANIZATION ( #204, #283 ) ;
#298 = ORIENTED_EDGE ( 'NONE', *, *, #134, .T. ) ;
#299 = SECURITY_CLASSIFICATION ( '', '', #10 ) ;
#300 = EDGE_LOOP ( 'NONE', ( #208, #24, #373, #65 ) ) ;
#301 = PLANE ( 'NONE',  #173 ) ;
#302 = DATE_AND_TIME ( #329, #55 ) ;
#303 = ORIENTED_EDGE ( 'NONE', *, *, #32, .T. ) ;
#304 = EDGE_LOOP ( 'NONE', ( #70, #158, #183, #108 ) ) ;
#305 = VECTOR ( 'NONE', #180, 1000.000000000000227 ) ;
#306 = LINE ( 'NONE', #56, #334 ) ;
#307 = DATE_AND_TIME ( #147, #229 ) ;
#308 = DIRECTION ( 'NONE',  ( -0.7071055040325011642, -0.7071080583382871598, -0.0000000000000000000 ) ) ;
#309 = PERSON_AND_ORGANIZATION_ROLE ( 'design_supplier' ) ;
#310 = CARTESIAN_POINT ( 'NONE',  ( -25.39999999999999858, -3.110602869834276076E-15, -12.69999999999999929 ) ) ;
#311 = LINE ( 'NONE', #333, #232 ) ;
#312 = DESIGN_CONTEXT ( 'detailed design', #74, 'design' ) ;
#313 = LINE ( 'NONE', #45, #345 ) ;
#314 = EDGE_CURVE ( 'NONE', #76, #166, #1, .T. ) ;
#315 = ORIENTED_EDGE ( 'NONE', *, *, #50, .F. ) ;
#316 = PERSON_AND_ORGANIZATION ( #204, #283 ) ;
#317 = DIRECTION ( 'NONE',  ( -0.0000000000000000000, -0.0000000000000000000, -1.000000000000000000 ) ) ;
#318 = EDGE_CURVE ( 'NONE', #332, #284, #294, .T. ) ;
#319 = ADVANCED_FACE ( 'NONE', ( #15 ), #246, .F. ) ;
#320 = PLANE ( 'NONE',  #216 ) ;
#321 = CC_DESIGN_PERSON_AND_ORGANIZATION_ASSIGNMENT ( #201, #276, ( #299 ) ) ;
#322 = VECTOR ( 'NONE', #270, 1000.000000000000000 ) ;
#323 = DIRECTION ( 'NONE',  ( 0.0000000000000000000, -0.0000000000000000000, 1.000000000000000000 ) ) ;
#324 = CARTESIAN_POINT ( 'NONE',  ( 0.0000000000000000000, 0.0000000000000000000, 12.69999999999999929 ) ) ;
#325 = ORIENTED_EDGE ( 'NONE', *, *, #371, .F. ) ;
#326 = VERTEX_POINT ( 'NONE', #94 ) ;
#327 = CARTESIAN_POINT ( 'NONE',  ( 0.0000000000000000000, 0.0000000000000000000, -12.69999999999999929 ) ) ;
#328 = CARTESIAN_POINT ( 'NONE',  ( -6.613092715395706481E-16, 25.39999999999999858, -12.69999999999999929 ) ) ;
#329 = CALENDAR_DATE ( 2019, 15, 10 ) ;
#330 = DIRECTION ( 'NONE',  ( -2.607612956359378123E-17, 1.000000000000000000, 0.0000000000000000000 ) ) ;
#331 = CARTESIAN_POINT ( 'NONE',  ( 0.0000000000000000000, 0.0000000000000000000, 12.69999999999999929 ) ) ;
#332 = VERTEX_POINT ( 'NONE', #69 ) ;
#333 = CARTESIAN_POINT ( 'NONE',  ( -6.613092715395706481E-16, 25.39999999999999858, 12.69999999999999929 ) ) ;
#334 = VECTOR ( 'NONE', #89, 1000.000000000000000 ) ;
#335 = CARTESIAN_POINT ( 'NONE',  ( -25.39743490984866980, 35.91999999999999460, 12.69999999999999929 ) ) ;
#336 = DIRECTION ( 'NONE',  ( 0.7071080583382871598, -0.7071055040325011642, 0.0000000000000000000 ) ) ;
#337 = ORIENTED_EDGE ( 'NONE', *, *, #162, .F. ) ;
#338 = ORIENTED_EDGE ( 'NONE', *, *, #31, .F. ) ;
#339 = PLANE ( 'NONE',  #242 ) ;
#340 = CARTESIAN_POINT ( 'NONE',  ( 0.0000000000000000000, 0.0000000000000000000, 12.69999999999999929 ) ) ;
#341 = ORIENTED_EDGE ( 'NONE', *, *, #243, .T. ) ;
#342 = CARTESIAN_POINT ( 'NONE',  ( -35.91993511141561157, 25.39746178758036166, 12.69999999999999929 ) ) ;
#343 = CC_DESIGN_DATE_AND_TIME_ASSIGNMENT ( #302, #39, ( #299 ) ) ;
#344 = APPROVAL_STATUS ( 'not_yet_approved' ) ;
#345 = VECTOR ( 'NONE', #346, 1000.000000000000227 ) ;
#346 = DIRECTION ( 'NONE',  ( -0.9238790436467324563, 0.3826846125863949122, -0.0000000000000000000 ) ) ;
#347 = CARTESIAN_POINT ( 'NONE',  ( -25.39743490984866980, 35.91999999999999460, 12.69999999999999929 ) ) ;
#348 = CARTESIAN_POINT ( 'NONE',  ( -35.91993511141561157, 25.39746178758036166, -12.69999999999999929 ) ) ;
#349 = ORIENTED_EDGE ( 'NONE', *, *, #52, .F. ) ;
#350 = ORIENTED_EDGE ( 'NONE', *, *, #50, .T. ) ;
#351 = VECTOR ( 'NONE', #209, 1000.000000000000000 ) ;
#352 = CARTESIAN_POINT ( 'NONE',  ( -25.39743490984866980, 35.91999999999999460, -12.69999999999999929 ) ) ;
#353 = LOCAL_TIME ( 10, 24, 43.00000000000000000, #16 ) ;
#354 = CARTESIAN_POINT ( 'NONE',  ( -6.613092715395706481E-16, 25.39999999999999858, 12.69999999999999929 ) ) ;
#355 = AXIS2_PLACEMENT_3D ( 'NONE', #379, #141, #323 ) ;
#356 = EDGE_CURVE ( 'NONE', #33, #76, #54, .T. ) ;
#357 = CALENDAR_DATE ( 2019, 15, 10 ) ;
#358 = CARTESIAN_POINT ( 'NONE',  ( -9.356301545485770604E-16, 35.91999999999999460, 12.69999999999999929 ) ) ;
#359 = APPROVAL ( #249, 'UNSPECIFIED' ) ;
#360 = DIRECTION ( 'NONE',  ( 0.3826822521431653690, -0.9238800213743312284, -0.0000000000000000000 ) ) ;
#361 = ORIENTED_EDGE ( 'NONE', *, *, #243, .F. ) ;
#362 = ORIENTED_EDGE ( 'NONE', *, *, #271, .T. ) ;
#363 = FACE_OUTER_BOUND ( 'NONE', #253, .T. ) ;
#364 = FACE_OUTER_BOUND ( 'NONE', #300, .T. ) ;
#365 = DIRECTION ( 'NONE',  ( -0.3826822521431653690, 0.9238800213743312284, 0.0000000000000000000 ) ) ;
#366 = VECTOR ( 'NONE', #296, 1000.000000000000000 ) ;
#367 = VECTOR ( 'NONE', #375, 1000.000000000000000 ) ;
#368 = APPLICATION_CONTEXT ( 'configuration controlled 3d designs of mechanical parts and assemblies' ) ;
#369 = CARTESIAN_POINT ( 'NONE',  ( -6.613092715395706481E-16, 25.39999999999999858, 12.69999999999999929 ) ) ;
#370 = LOCAL_TIME ( 10, 24, 43.00000000000000000, #113 ) ;
#371 = EDGE_CURVE ( 'NONE', #326, #43, #36, .T. ) ;
#372 = COORDINATED_UNIVERSAL_TIME_OFFSET ( 5, 0, .BEHIND. ) ;
#373 = ORIENTED_EDGE ( 'NONE', *, *, #239, .T. ) ;
#374 = ADVANCED_FACE ( 'NONE', ( #92 ), #339, .F. ) ;
#375 = DIRECTION ( 'NONE',  ( -0.0000000000000000000, -0.0000000000000000000, -1.000000000000000000 ) ) ;
#376 = CARTESIAN_POINT ( 'NONE',  ( -9.356301545485770604E-16, 35.91999999999999460, -12.69999999999999929 ) ) ;
#377 = PERSON_AND_ORGANIZATION ( #204, #283 ) ;
#378 = CARTESIAN_POINT ( 'NONE',  ( 0.0000000000000000000, 0.0000000000000000000, -12.69999999999999929 ) ) ;
#379 = CARTESIAN_POINT ( 'NONE',  ( -25.39743490984866980, 35.91999999999999460, 12.69999999999999929 ) ) ;
#380 = ORIENTED_EDGE ( 'NONE', *, *, #64, .T. ) ;
#381 = DIRECTION ( 'NONE',  ( -1.000000000000000000, 0.0000000000000000000, -0.0000000000000000000 ) ) ;
#382 = DIRECTION ( 'NONE',  ( 0.0000000000000000000, 0.0000000000000000000, -1.000000000000000000 ) ) ;
#383 = CARTESIAN_POINT ( 'NONE',  ( 0.0000000000000000000, 0.0000000000000000000, -12.69999999999999929 ) ) ;
#384 = DIRECTION ( 'NONE',  ( -2.603579809210908100E-17, 1.000000000000000000, -0.0000000000000000000 ) ) ;
#385 = DIRECTION ( 'NONE',  ( -2.603579809210908100E-17, 1.000000000000000000, -0.0000000000000000000 ) ) ;
#386 = CC_DESIGN_SECURITY_CLASSIFICATION ( #299, ( #165 ) ) ;
#387 = ORIENTED_EDGE ( 'NONE', *, *, #31, .T. ) ;
ENDSEC;
END-ISO-10303-21;
