ISO-10303-21;
HEADER;
FILE_DESCRIPTION (( 'STEP AP203' ),
    '1' );
FILE_NAME ('step_35932.step',
    '2017-05-22T20:25:51',
    ( '' ),
    ( '' ),
    'SwSTEP 2.0',
    'SolidWorks 2016',
    '' );
FILE_SCHEMA (( 'CONFIG_CONTROL_DESIGN' ));
ENDSEC;

DATA;
#1 = PRODUCT_DEFINITION_SHAPE ( 'NONE', 'NONE',  #70 ) ;
#2 = AXIS2_PLACEMENT_3D ( 'NONE', #26, #21, #13 ) ;
#3 = ORIENTED_EDGE ( 'NONE', *, *, #108, .F. ) ;
#4 = APPROVAL_STATUS ( 'not_yet_approved' ) ;
#5 = APPLICATION_CONTEXT ( 'configuration controlled 3d designs of mechanical parts and assemblies' ) ;
#6 = CARTESIAN_POINT ( 'NONE',  ( 0.0000000000000000000, 0.0000000000000000000, 0.0000000000000000000 ) ) ;
#7 = MANIFOLD_SOLID_BREP ( 'Boss-Extrude1', #230 ) ;
#8 = DESIGN_CONTEXT ( 'detailed design', #5, 'design' ) ;
#9 = APPROVAL_DATE_TIME ( #165, #153 ) ;
#10 = CARTESIAN_POINT ( 'NONE',  ( 6.249999999999999100, -8.750000000000001800, 0.0000000000000000000 ) ) ;
#11 = CARTESIAN_POINT ( 'NONE',  ( -6.250000000000002700, 8.749999999999998200, 0.0000000000000000000 ) ) ;
#12 = CC_DESIGN_APPROVAL ( #236, ( #194 ) ) ;
#13 = DIRECTION ( 'NONE',  ( 1.000000000000000000, 0.0000000000000000000, 0.0000000000000000000 ) ) ;
#14 = AXIS2_PLACEMENT_3D ( 'NONE', #64, #227, #214 ) ;
#15 = ADVANCED_FACE ( 'NONE', ( #209 ), #29, .F. ) ;
#16 = VECTOR ( 'NONE', #62, 1000.000000000000000 ) ;
#17 = LINE ( 'NONE', #171, #72 ) ;
#18 = LOCAL_TIME ( 13, 25, 51.00000000000000000, #110 ) ;
#19 = EDGE_LOOP ( 'NONE', ( #22, #184, #193, #107 ) ) ;
#20 = ADVANCED_FACE ( 'NONE', ( #167 ), #37, .F. ) ;
#21 = DIRECTION ( 'NONE',  ( -0.0000000000000000000, 0.0000000000000000000, 1.000000000000000000 ) ) ;
#22 = ORIENTED_EDGE ( 'NONE', *, *, #147, .T. ) ;
#23 = CC_DESIGN_SECURITY_CLASSIFICATION ( #194, ( #144 ) ) ;
#24 = PERSON_AND_ORGANIZATION_ROLE ( 'classification_officer' ) ;
#25 = MECHANICAL_CONTEXT ( 'NONE', #42, 'mechanical' ) ;
#26 = CARTESIAN_POINT ( 'NONE',  ( 0.0000000000000000000, 0.0000000000000000000, 1.000000000000000000 ) ) ;
#27 = PLANE ( 'NONE',  #2 ) ;
#28 = CARTESIAN_POINT ( 'NONE',  ( 6.249999999999997300, 8.749999999999998200, 0.0000000000000000000 ) ) ;
#29 = PLANE ( 'NONE',  #127 ) ;
#30 = DATE_AND_TIME ( #202, #116 ) ;
#31 = DIRECTION ( 'NONE',  ( -0.0000000000000000000, -0.0000000000000000000, -1.000000000000000000 ) ) ;
#32 = LINE ( 'NONE', #11, #73 ) ;
#33 = EDGE_CURVE ( 'NONE', #128, #185, #221, .T. ) ;
#34 = VECTOR ( 'NONE', #101, 1000.000000000000000 ) ;
#35 = VECTOR ( 'NONE', #139, 1000.000000000000000 ) ;
#36 = PRODUCT_RELATED_PRODUCT_CATEGORY ( 'detail', '', ( #160 ) ) ;
#37 = PLANE ( 'NONE',  #14 ) ;
#38 = VECTOR ( 'NONE', #187, 1000.000000000000000 ) ;
#39 = DIRECTION ( 'NONE',  ( 0.0000000000000000000, -0.0000000000000000000, 1.000000000000000000 ) ) ;
#40 = PERSON_AND_ORGANIZATION ( #130, #43 ) ;
#41 = PERSON_AND_ORGANIZATION_ROLE ( 'design_supplier' ) ;
#42 = APPLICATION_CONTEXT ( 'configuration controlled 3d designs of mechanical parts and assemblies' ) ;
#43 = ORGANIZATION ( 'UNSPECIFIED', 'UNSPECIFIED', '' ) ;
#44 = DIRECTION ( 'NONE',  ( -1.000000000000000000, -0.0000000000000000000, -0.0000000000000000000 ) ) ;
#45 = DATE_AND_TIME ( #53, #18 ) ;
#46 = CARTESIAN_POINT ( 'NONE',  ( -6.250000000000002700, 8.749999999999998200, 1.000000000000000000 ) ) ;
#47 = DIRECTION ( 'NONE',  ( 1.000000000000000000, 0.0000000000000000000, 0.0000000000000000000 ) ) ;
#48 = FACE_OUTER_BOUND ( 'NONE', #86, .T. ) ;
#49 = LINE ( 'NONE', #80, #71 ) ;
#50 = LINE ( 'NONE', #55, #79 ) ;
#51 = VECTOR ( 'NONE', #157, 1000.000000000000000 ) ;
#52 = AXIS2_PLACEMENT_3D ( 'NONE', #6, #226, #156 ) ;
#53 = CALENDAR_DATE ( 2017, 22, 5 ) ;
#54 = APPROVAL_DATE_TIME ( #45, #236 ) ;
#55 = CARTESIAN_POINT ( 'NONE',  ( -6.250000000000000000, -8.750000000000001800, 1.000000000000000000 ) ) ;
#56 = FACE_OUTER_BOUND ( 'NONE', #216, .T. ) ;
#57 = APPROVAL_ROLE ( '' ) ;
#58 = EDGE_CURVE ( 'NONE', #128, #222, #77, .T. ) ;
#59 = APPLICATION_PROTOCOL_DEFINITION ( 'international standard', 'config_control_design', 1994, #42 ) ;
#60 = DIRECTION ( 'NONE',  ( 1.000000000000000000, 0.0000000000000000000, 0.0000000000000000000 ) ) ;
#61 = CC_DESIGN_PERSON_AND_ORGANIZATION_ASSIGNMENT ( #133, #136, ( #160 ) ) ;
#62 = DIRECTION ( 'NONE',  ( -0.0000000000000000000, -0.0000000000000000000, -1.000000000000000000 ) ) ;
#63 = VECTOR ( 'NONE', #232, 1000.000000000000000 ) ;
#64 = CARTESIAN_POINT ( 'NONE',  ( 0.0000000000000000000, 0.0000000000000000000, 0.0000000000000000000 ) ) ;
#65 = ORIENTED_EDGE ( 'NONE', *, *, #81, .T. ) ;
#66 = VERTEX_POINT ( 'NONE', #172 ) ;
#67 = CARTESIAN_POINT ( 'NONE',  ( 6.249999999999997300, 8.749999999999998200, 1.000000000000000000 ) ) ;
#68 = EDGE_CURVE ( 'NONE', #198, #185, #102, .T. ) ;
#69 = FACE_OUTER_BOUND ( 'NONE', #229, .T. ) ;
#70 = PRODUCT_DEFINITION ( 'UNKNOWN', '', #144, #8 ) ;
#71 = VECTOR ( 'NONE', #183, 1000.000000000000000 ) ;
#72 = VECTOR ( 'NONE', #60, 1000.000000000000000 ) ;
#73 = VECTOR ( 'NONE', #44, 1000.000000000000000 ) ;
#74 = DATE_TIME_ROLE ( 'creation_date' ) ;
#75 = VERTEX_POINT ( 'NONE', #173 ) ;
#76 =( NAMED_UNIT ( * ) SI_UNIT ( $, .STERADIAN. ) SOLID_ANGLE_UNIT ( ) );
#77 = LINE ( 'NONE', #191, #38 ) ;
#78 = LINE ( 'NONE', #84, #34 ) ;
#79 = VECTOR ( 'NONE', #47, 1000.000000000000000 ) ;
#80 = CARTESIAN_POINT ( 'NONE',  ( -6.250000000000000000, -8.750000000000001800, 1.000000000000000000 ) ) ;
#81 = EDGE_CURVE ( 'NONE', #75, #66, #109, .T. ) ;
#82 = DIRECTION ( 'NONE',  ( 0.0000000000000000000, 1.000000000000000000, 0.0000000000000000000 ) ) ;
#83 = CARTESIAN_POINT ( 'NONE',  ( 6.249999999999999100, -8.750000000000001800, 1.000000000000000000 ) ) ;
#84 = CARTESIAN_POINT ( 'NONE',  ( 6.249999999999997300, 8.749999999999998200, 1.000000000000000000 ) ) ;
#85 = ADVANCED_FACE ( 'NONE', ( #56 ), #143, .F. ) ;
#86 = EDGE_LOOP ( 'NONE', ( #223, #231, #96, #94 ) ) ;
#87 = APPROVAL ( #225, 'UNSPECIFIED' ) ;
#88 = ORIENTED_EDGE ( 'NONE', *, *, #200, .T. ) ;
#89 = ADVANCED_FACE ( 'NONE', ( #106 ), #138, .F. ) ;
#90 = DIRECTION ( 'NONE',  ( 9.912705577010325500E-017, -1.000000000000000000, 0.0000000000000000000 ) ) ;
#91 = ORIENTED_EDGE ( 'NONE', *, *, #200, .F. ) ;
#92 = EDGE_CURVE ( 'NONE', #222, #175, #114, .T. ) ;
#93 = LINE ( 'NONE', #46, #237 ) ;
#94 = ORIENTED_EDGE ( 'NONE', *, *, #58, .T. ) ;
#95 = ADVANCED_FACE ( 'NONE', ( #69 ), #105, .F. ) ;
#96 = ORIENTED_EDGE ( 'NONE', *, *, #98, .T. ) ;
#97 = APPROVAL_ROLE ( '' ) ;
#98 = EDGE_CURVE ( 'NONE', #197, #128, #78, .T. ) ;
#99 =( LENGTH_UNIT ( ) NAMED_UNIT ( * ) SI_UNIT ( .MILLI., .METRE. ) );
#100 = DIRECTION ( 'NONE',  ( -1.000000000000000000, -9.912705577010325500E-017, 0.0000000000000000000 ) ) ;
#101 = DIRECTION ( 'NONE',  ( -9.912705577010325500E-017, 1.000000000000000000, -0.0000000000000000000 ) ) ;
#102 = LINE ( 'NONE', #189, #51 ) ;
#103 = CARTESIAN_POINT ( 'NONE',  ( 6.249999999999997300, 8.749999999999998200, 1.000000000000000000 ) ) ;
#104 = CC_DESIGN_APPROVAL ( #87, ( #70 ) ) ;
#105 = PLANE ( 'NONE',  #217 ) ;
#106 = FACE_OUTER_BOUND ( 'NONE', #19, .T. ) ;
#107 = ORIENTED_EDGE ( 'NONE', *, *, #33, .T. ) ;
#108 = EDGE_CURVE ( 'NONE', #197, #198, #218, .T. ) ;
#109 = LINE ( 'NONE', #150, #35 ) ;
#110 = COORDINATED_UNIVERSAL_TIME_OFFSET ( 7, 0, .BEHIND. ) ;
#111 = CARTESIAN_POINT ( 'NONE',  ( -6.250000000000002700, 8.749999999999998200, 1.000000000000000000 ) ) ;
#112 = DIRECTION ( 'NONE',  ( 0.0000000000000000000, -0.0000000000000000000, -1.000000000000000000 ) ) ;
#113 = EDGE_CURVE ( 'NONE', #175, #197, #50, .T. ) ;
#114 = LINE ( 'NONE', #111, #120 ) ;
#115 = CC_DESIGN_PERSON_AND_ORGANIZATION_ASSIGNMENT ( #178, #205, ( #70 ) ) ;
#116 = LOCAL_TIME ( 13, 25, 51.00000000000000000, #179 ) ;
#117 = APPROVAL_ROLE ( '' ) ;
#118 = DIRECTION ( 'NONE',  ( 0.0000000000000000000, -1.000000000000000000, 0.0000000000000000000 ) ) ;
#119 = APPLICATION_PROTOCOL_DEFINITION ( 'international standard', 'config_control_design', 1994, #5 ) ;
#120 = VECTOR ( 'NONE', #121, 1000.000000000000000 ) ;
#121 = DIRECTION ( 'NONE',  ( 1.486905836551548800E-016, -1.000000000000000000, 0.0000000000000000000 ) ) ;
#122 = SHAPE_DEFINITION_REPRESENTATION ( #1, #154 ) ;
#123 = EDGE_CURVE ( 'NONE', #222, #75, #93, .T. ) ;
#124 = DIRECTION ( 'NONE',  ( -1.486905836551548800E-016, 1.000000000000000000, 0.0000000000000000000 ) ) ;
#125 = DIRECTION ( 'NONE',  ( 1.000000000000000000, 1.486905836551548800E-016, -0.0000000000000000000 ) ) ;
#126 = CARTESIAN_POINT ( 'NONE',  ( -6.250000000000002700, 8.749999999999998200, 1.000000000000000000 ) ) ;
#127 = AXIS2_PLACEMENT_3D ( 'NONE', #211, #82, #39 ) ;
#128 = VERTEX_POINT ( 'NONE', #67 ) ;
#129 = CALENDAR_DATE ( 2017, 22, 5 ) ;
#130 = PERSON ( 'UNSPECIFIED', 'UNSPECIFIED', 'UNSPECIFIED', ('UNSPECIFIED'), ('UNSPECIFIED'), ('UNSPECIFIED') ) ;
#131 = ADVANCED_FACE ( 'NONE', ( #48 ), #27, .T. ) ;
#132 = CC_DESIGN_DATE_AND_TIME_ASSIGNMENT ( #213, #74, ( #70 ) ) ;
#133 = PERSON_AND_ORGANIZATION ( #130, #43 ) ;
#134 = DATE_AND_TIME ( #129, #152 ) ;
#135 = DATE_TIME_ROLE ( 'classification_date' ) ;
#136 = PERSON_AND_ORGANIZATION_ROLE ( 'design_owner' ) ;
#137 = CARTESIAN_POINT ( 'NONE',  ( -6.250000000000002700, 8.749999999999998200, 1.000000000000000000 ) ) ;
#138 = PLANE ( 'NONE',  #186 ) ;
#139 = DIRECTION ( 'NONE',  ( 1.486905836551548800E-016, -1.000000000000000000, 0.0000000000000000000 ) ) ;
#140 = PERSON_AND_ORGANIZATION ( #130, #43 ) ;
#141 = PERSON_AND_ORGANIZATION ( #130, #43 ) ;
#142 = ORIENTED_EDGE ( 'NONE', *, *, #33, .F. ) ;
#143 = PLANE ( 'NONE',  #166 ) ;
#144 = PRODUCT_DEFINITION_FORMATION_WITH_SPECIFIED_SOURCE ( 'ANY', '', #160, .NOT_KNOWN. ) ;
#145 = COORDINATED_UNIVERSAL_TIME_OFFSET ( 7, 0, .BEHIND. ) ;
#146 = EDGE_LOOP ( 'NONE', ( #162, #3, #234, #88 ) ) ;
#147 = EDGE_CURVE ( 'NONE', #185, #75, #32, .T. ) ;
#148 = APPROVAL_PERSON_ORGANIZATION ( #168, #87, #97 ) ;
#149 = COORDINATED_UNIVERSAL_TIME_OFFSET ( 7, 0, .BEHIND. ) ;
#150 = CARTESIAN_POINT ( 'NONE',  ( -6.250000000000002700, 8.749999999999998200, 0.0000000000000000000 ) ) ;
#151 = APPROVAL_PERSON_ORGANIZATION ( #141, #153, #57 ) ;
#152 = LOCAL_TIME ( 13, 25, 51.00000000000000000, #149 ) ;
#153 = APPROVAL ( #182, 'UNSPECIFIED' ) ;
#154 = ADVANCED_BREP_SHAPE_REPRESENTATION ( 'step_35932', ( #7, #52 ), #228 ) ;
#155 = SECURITY_CLASSIFICATION_LEVEL ( 'unclassified' ) ;
#156 = DIRECTION ( 'NONE',  ( 1.000000000000000000, 0.0000000000000000000, 0.0000000000000000000 ) ) ;
#157 = DIRECTION ( 'NONE',  ( -9.912705577010325500E-017, 1.000000000000000000, -0.0000000000000000000 ) ) ;
#158 = CARTESIAN_POINT ( 'NONE',  ( 6.249999999999999100, -8.750000000000001800, 1.000000000000000000 ) ) ;
#159 = CARTESIAN_POINT ( 'NONE',  ( -6.250000000000002700, 8.749999999999998200, 1.000000000000000000 ) ) ;
#160 = PRODUCT ( 'step_35932', 'step_35932', '', ( #25 ) ) ;
#161 = LOCAL_TIME ( 13, 25, 51.00000000000000000, #199 ) ;
#162 = ORIENTED_EDGE ( 'NONE', *, *, #207, .T. ) ;
#163 = CC_DESIGN_APPROVAL ( #153, ( #144 ) ) ;
#164 = ORIENTED_EDGE ( 'NONE', *, *, #147, .F. ) ;
#165 = DATE_AND_TIME ( #192, #180 ) ;
#166 = AXIS2_PLACEMENT_3D ( 'NONE', #159, #125, #124 ) ;
#167 = FACE_OUTER_BOUND ( 'NONE', #235, .T. ) ;
#168 = PERSON_AND_ORGANIZATION ( #130, #43 ) ;
#169 = PERSON_AND_ORGANIZATION_ROLE ( 'creator' ) ;
#170 = APPROVAL_DATE_TIME ( #134, #87 ) ;
#171 = CARTESIAN_POINT ( 'NONE',  ( -6.250000000000000000, -8.750000000000001800, 0.0000000000000000000 ) ) ;
#172 = CARTESIAN_POINT ( 'NONE',  ( -6.250000000000000000, -8.750000000000001800, 0.0000000000000000000 ) ) ;
#173 = CARTESIAN_POINT ( 'NONE',  ( -6.250000000000002700, 8.749999999999998200, 0.0000000000000000000 ) ) ;
#174 = CC_DESIGN_PERSON_AND_ORGANIZATION_ASSIGNMENT ( #220, #169, ( #144 ) ) ;
#175 = VERTEX_POINT ( 'NONE', #208 ) ;
#176 = ORIENTED_EDGE ( 'NONE', *, *, #68, .T. ) ;
#177 = PERSON_AND_ORGANIZATION ( #130, #43 ) ;
#178 = PERSON_AND_ORGANIZATION ( #130, #43 ) ;
#179 = COORDINATED_UNIVERSAL_TIME_OFFSET ( 7, 0, .BEHIND. ) ;
#180 = LOCAL_TIME ( 13, 25, 51.00000000000000000, #145 ) ;
#181 = CC_DESIGN_PERSON_AND_ORGANIZATION_ASSIGNMENT ( #40, #41, ( #144 ) ) ;
#182 = APPROVAL_STATUS ( 'not_yet_approved' ) ;
#183 = DIRECTION ( 'NONE',  ( -0.0000000000000000000, -0.0000000000000000000, -1.000000000000000000 ) ) ;
#184 = ORIENTED_EDGE ( 'NONE', *, *, #123, .F. ) ;
#185 = VERTEX_POINT ( 'NONE', #28 ) ;
#186 = AXIS2_PLACEMENT_3D ( 'NONE', #126, #118, #112 ) ;
#187 = DIRECTION ( 'NONE',  ( -1.000000000000000000, -0.0000000000000000000, -0.0000000000000000000 ) ) ;
#188 = ORIENTED_EDGE ( 'NONE', *, *, #81, .F. ) ;
#189 = CARTESIAN_POINT ( 'NONE',  ( 6.249999999999997300, 8.749999999999998200, 0.0000000000000000000 ) ) ;
#190 = ORIENTED_EDGE ( 'NONE', *, *, #108, .T. ) ;
#191 = CARTESIAN_POINT ( 'NONE',  ( -6.250000000000002700, 8.749999999999998200, 1.000000000000000000 ) ) ;
#192 = CALENDAR_DATE ( 2017, 22, 5 ) ;
#193 = ORIENTED_EDGE ( 'NONE', *, *, #58, .F. ) ;
#194 = SECURITY_CLASSIFICATION ( '', '', #155 ) ;
#195 = APPROVAL_PERSON_ORGANIZATION ( #177, #236, #117 ) ;
#196 = ORIENTED_EDGE ( 'NONE', *, *, #207, .F. ) ;
#197 = VERTEX_POINT ( 'NONE', #158 ) ;
#198 = VERTEX_POINT ( 'NONE', #10 ) ;
#199 = COORDINATED_UNIVERSAL_TIME_OFFSET ( 7, 0, .BEHIND. ) ;
#200 = EDGE_CURVE ( 'NONE', #175, #66, #49, .T. ) ;
#201 = UNCERTAINTY_MEASURE_WITH_UNIT (LENGTH_MEASURE( 1.000000000000000100E-005 ), #99, 'distance_accuracy_value', 'NONE');
#202 = CALENDAR_DATE ( 2017, 22, 5 ) ;
#203 = ORIENTED_EDGE ( 'NONE', *, *, #68, .F. ) ;
#204 = ORIENTED_EDGE ( 'NONE', *, *, #92, .F. ) ;
#205 = PERSON_AND_ORGANIZATION_ROLE ( 'creator' ) ;
#206 =( NAMED_UNIT ( * ) PLANE_ANGLE_UNIT ( ) SI_UNIT ( $, .RADIAN. ) );
#207 = EDGE_CURVE ( 'NONE', #66, #198, #17, .T. ) ;
#208 = CARTESIAN_POINT ( 'NONE',  ( -6.250000000000000000, -8.750000000000001800, 1.000000000000000000 ) ) ;
#209 = FACE_OUTER_BOUND ( 'NONE', #146, .T. ) ;
#210 = CARTESIAN_POINT ( 'NONE',  ( 6.249999999999997300, 8.749999999999998200, 1.000000000000000000 ) ) ;
#211 = CARTESIAN_POINT ( 'NONE',  ( -6.250000000000000000, -8.750000000000001800, 1.000000000000000000 ) ) ;
#212 = CC_DESIGN_PERSON_AND_ORGANIZATION_ASSIGNMENT ( #140, #24, ( #194 ) ) ;
#213 = DATE_AND_TIME ( #215, #161 ) ;
#214 = DIRECTION ( 'NONE',  ( 1.000000000000000000, 0.0000000000000000000, 0.0000000000000000000 ) ) ;
#215 = CALENDAR_DATE ( 2017, 22, 5 ) ;
#216 = EDGE_LOOP ( 'NONE', ( #65, #91, #204, #219 ) ) ;
#217 = AXIS2_PLACEMENT_3D ( 'NONE', #103, #100, #90 ) ;
#218 = LINE ( 'NONE', #83, #16 ) ;
#219 = ORIENTED_EDGE ( 'NONE', *, *, #123, .T. ) ;
#220 = PERSON_AND_ORGANIZATION ( #130, #43 ) ;
#221 = LINE ( 'NONE', #210, #63 ) ;
#222 = VERTEX_POINT ( 'NONE', #137 ) ;
#223 = ORIENTED_EDGE ( 'NONE', *, *, #92, .T. ) ;
#224 = CC_DESIGN_DATE_AND_TIME_ASSIGNMENT ( #30, #135, ( #194 ) ) ;
#225 = APPROVAL_STATUS ( 'not_yet_approved' ) ;
#226 = DIRECTION ( 'NONE',  ( 0.0000000000000000000, 0.0000000000000000000, 1.000000000000000000 ) ) ;
#227 = DIRECTION ( 'NONE',  ( -0.0000000000000000000, 0.0000000000000000000, 1.000000000000000000 ) ) ;
#228 =( GEOMETRIC_REPRESENTATION_CONTEXT ( 3 ) GLOBAL_UNCERTAINTY_ASSIGNED_CONTEXT ( ( #201 ) ) GLOBAL_UNIT_ASSIGNED_CONTEXT ( ( #99, #206, #76 ) ) REPRESENTATION_CONTEXT ( 'NONE', 'WORKASPACE' ) );
#229 = EDGE_LOOP ( 'NONE', ( #176, #142, #233, #190 ) ) ;
#230 = CLOSED_SHELL ( 'NONE', ( #85, #15, #95, #89, #131, #20 ) ) ;
#231 = ORIENTED_EDGE ( 'NONE', *, *, #113, .T. ) ;
#232 = DIRECTION ( 'NONE',  ( -0.0000000000000000000, -0.0000000000000000000, -1.000000000000000000 ) ) ;
#233 = ORIENTED_EDGE ( 'NONE', *, *, #98, .F. ) ;
#234 = ORIENTED_EDGE ( 'NONE', *, *, #113, .F. ) ;
#235 = EDGE_LOOP ( 'NONE', ( #188, #164, #203, #196 ) ) ;
#236 = APPROVAL ( #4, 'UNSPECIFIED' ) ;
#237 = VECTOR ( 'NONE', #31, 1000.000000000000000 ) ;
ENDSEC;
END-ISO-10303-21;
