ISO-10303-21;
HEADER;
FILE_DESCRIPTION (( 'STEP AP203' ),
    '1' );
FILE_NAME ('43633_Default.step',
    '2017-04-12T17:42:50',
    ( '' ),
    ( '' ),
    'SwSTEP 2.0',
    'SolidWorks 2016',
    '' );
FILE_SCHEMA (( 'CONFIG_CONTROL_DESIGN' ));
ENDSEC;

DATA;
#1 = DIRECTION ( 'NONE',  ( 1.000000000000000000, 0.0000000000000000000, 0.0000000000000000000 ) ) ;
#2 = AXIS2_PLACEMENT_3D ( 'NONE', #133, #31, #132 ) ;
#3 = PERSON_AND_ORGANIZATION ( #115, #151 ) ;
#4 = CC_DESIGN_DATE_AND_TIME_ASSIGNMENT ( #96, #102, ( #109 ) ) ;
#5 = FACE_OUTER_BOUND ( 'NONE', #163, .T. ) ;
#6 = CARTESIAN_POINT ( 'NONE',  ( 0.0000000000000000000, 0.0000000000000000000, 1.000000000000000000 ) ) ;
#7 = AXIS2_PLACEMENT_3D ( 'NONE', #111, #21, #78 ) ;
#8 = VECTOR ( 'NONE', #48, 1000.000000000000000 ) ;
#9 = CC_DESIGN_DATE_AND_TIME_ASSIGNMENT ( #119, #99, ( #77 ) ) ;
#10 = APPROVAL_ROLE ( '' ) ;
#11 = ORIENTED_EDGE ( 'NONE', *, *, #38, .F. ) ;
#12 = COORDINATED_UNIVERSAL_TIME_OFFSET ( 5, 0, .BEHIND. ) ;
#13 = ORIENTED_EDGE ( 'NONE', *, *, #141, .F. ) ;
#14 = EDGE_CURVE ( 'NONE', #91, #59, #143, .T. ) ;
#15 = PERSON_AND_ORGANIZATION_ROLE ( 'creator' ) ;
#16 = SECURITY_CLASSIFICATION_LEVEL ( 'unclassified' ) ;
#17 = PERSON_AND_ORGANIZATION_ROLE ( 'classification_officer' ) ;
#18 = EDGE_CURVE ( 'NONE', #91, #128, #47, .T. ) ;
#19 = LOCAL_TIME ( 13, 42, 50.00000000000000000, #54 ) ;
#20 = ORIENTED_EDGE ( 'NONE', *, *, #38, .T. ) ;
#21 = DIRECTION ( 'NONE',  ( -0.0000000000000000000, -0.0000000000000000000, -1.000000000000000000 ) ) ;
#22 = CC_DESIGN_APPROVAL ( #51, ( #77 ) ) ;
#23 = CC_DESIGN_PERSON_AND_ORGANIZATION_ASSIGNMENT ( #90, #17, ( #77 ) ) ;
#24 = APPROVAL_DATE_TIME ( #57, #88 ) ;
#25 = ORIENTED_EDGE ( 'NONE', *, *, #76, .F. ) ;
#26 = PRODUCT ( '43633_Default', '43633_Default', '', ( #67 ) ) ;
#27 = VERTEX_POINT ( 'NONE', #112 ) ;
#28 = APPROVAL_PERSON_ORGANIZATION ( #61, #88, #39 ) ;
#29 = ADVANCED_BREP_SHAPE_REPRESENTATION ( '43633_Default', ( #46, #131 ), #70 ) ;
#30 = CLOSED_SHELL ( 'NONE', ( #101, #110, #170, #72 ) ) ;
#31 = DIRECTION ( 'NONE',  ( 0.0000000000000000000, 0.0000000000000000000, 1.000000000000000000 ) ) ;
#32 = AXIS2_PLACEMENT_3D ( 'NONE', #49, #69, #103 ) ;
#33 = COORDINATED_UNIVERSAL_TIME_OFFSET ( 5, 0, .BEHIND. ) ;
#34 = DESIGN_CONTEXT ( 'detailed design', #155, 'design' ) ;
#35 = DIRECTION ( 'NONE',  ( 0.0000000000000000000, 0.0000000000000000000, 1.000000000000000000 ) ) ;
#36 = CARTESIAN_POINT ( 'NONE',  ( 0.0000000000000000000, 0.0000000000000000000, -1.000000000000000000 ) ) ;
#37 = LOCAL_TIME ( 13, 42, 50.00000000000000000, #71 ) ;
#38 = EDGE_CURVE ( 'NONE', #59, #27, #89, .T. ) ;
#39 = APPROVAL_ROLE ( '' ) ;
#40 = APPROVAL_STATUS ( 'not_yet_approved' ) ;
#41 = AXIS2_PLACEMENT_3D ( 'NONE', #134, #146, #95 ) ;
#42 = CARTESIAN_POINT ( 'NONE',  ( 8.624999999999998200, 1.056257864264591800E-015, 1.000000000000000000 ) ) ;
#43 = FACE_OUTER_BOUND ( 'NONE', #97, .T. ) ;
#44 = CC_DESIGN_SECURITY_CLASSIFICATION ( #77, ( #144 ) ) ;
#45 = APPROVAL_DATE_TIME ( #82, #51 ) ;
#46 = MANIFOLD_SOLID_BREP ( 'Boss-Extrude1', #30 ) ;
#47 = CIRCLE ( 'NONE', #129, 8.624999999999998200 ) ;
#48 = DIRECTION ( 'NONE',  ( -0.0000000000000000000, -0.0000000000000000000, -1.000000000000000000 ) ) ;
#49 = CARTESIAN_POINT ( 'NONE',  ( 0.0000000000000000000, 0.0000000000000000000, -1.000000000000000000 ) ) ;
#50 = APPROVAL_PERSON_ORGANIZATION ( #85, #51, #107 ) ;
#51 = APPROVAL ( #60, 'UNSPECIFIED' ) ;
#52 =( LENGTH_UNIT ( ) NAMED_UNIT ( * ) SI_UNIT ( .MILLI., .METRE. ) );
#53 = CYLINDRICAL_SURFACE ( 'NONE', #171, 8.624999999999998200 ) ;
#54 = COORDINATED_UNIVERSAL_TIME_OFFSET ( 5, 0, .BEHIND. ) ;
#55 = ORIENTED_EDGE ( 'NONE', *, *, #14, .F. ) ;
#56 = PRODUCT_RELATED_PRODUCT_CATEGORY ( 'detail', '', ( #26 ) ) ;
#57 = DATE_AND_TIME ( #94, #127 ) ;
#58 = CARTESIAN_POINT ( 'NONE',  ( -8.624999999999998200, 0.0000000000000000000, 1.000000000000000000 ) ) ;
#59 = VERTEX_POINT ( 'NONE', #124 ) ;
#60 = APPROVAL_STATUS ( 'not_yet_approved' ) ;
#61 = PERSON_AND_ORGANIZATION ( #115, #151 ) ;
#62 = CC_DESIGN_PERSON_AND_ORGANIZATION_ASSIGNMENT ( #68, #15, ( #109 ) ) ;
#63 = CIRCLE ( 'NONE', #2, 8.624999999999998200 ) ;
#64 =( NAMED_UNIT ( * ) SI_UNIT ( $, .STERADIAN. ) SOLID_ANGLE_UNIT ( ) );
#65 = EDGE_CURVE ( 'NONE', #27, #59, #117, .T. ) ;
#66 = DIRECTION ( 'NONE',  ( 1.000000000000000000, 0.0000000000000000000, -0.0000000000000000000 ) ) ;
#67 = MECHANICAL_CONTEXT ( 'NONE', #104, 'mechanical' ) ;
#68 = PERSON_AND_ORGANIZATION ( #115, #151 ) ;
#69 = DIRECTION ( 'NONE',  ( 0.0000000000000000000, 0.0000000000000000000, 1.000000000000000000 ) ) ;
#70 =( GEOMETRIC_REPRESENTATION_CONTEXT ( 3 ) GLOBAL_UNCERTAINTY_ASSIGNED_CONTEXT ( ( #156 ) ) GLOBAL_UNIT_ASSIGNED_CONTEXT ( ( #52, #80, #64 ) ) REPRESENTATION_CONTEXT ( 'NONE', 'WORKASPACE' ) );
#71 = COORDINATED_UNIVERSAL_TIME_OFFSET ( 5, 0, .BEHIND. ) ;
#72 = ADVANCED_FACE ( 'NONE', ( #122 ), #93, .F. ) ;
#73 = PLANE ( 'NONE',  #113 ) ;
#74 = CARTESIAN_POINT ( 'NONE',  ( 0.0000000000000000000, 0.0000000000000000000, 1.000000000000000000 ) ) ;
#75 = VECTOR ( 'NONE', #168, 1000.000000000000000 ) ;
#76 = EDGE_CURVE ( 'NONE', #128, #91, #63, .T. ) ;
#77 = SECURITY_CLASSIFICATION ( '', '', #16 ) ;
#78 = DIRECTION ( 'NONE',  ( -1.000000000000000000, 0.0000000000000000000, 0.0000000000000000000 ) ) ;
#79 = PERSON_AND_ORGANIZATION_ROLE ( 'creator' ) ;
#80 =( NAMED_UNIT ( * ) PLANE_ANGLE_UNIT ( ) SI_UNIT ( $, .RADIAN. ) );
#81 = CC_DESIGN_PERSON_AND_ORGANIZATION_ASSIGNMENT ( #3, #140, ( #26 ) ) ;
#82 = DATE_AND_TIME ( #114, #148 ) ;
#83 = ORIENTED_EDGE ( 'NONE', *, *, #18, .T. ) ;
#84 = DIRECTION ( 'NONE',  ( 1.000000000000000000, 0.0000000000000000000, 0.0000000000000000000 ) ) ;
#85 = PERSON_AND_ORGANIZATION ( #115, #151 ) ;
#86 = FACE_OUTER_BOUND ( 'NONE', #149, .T. ) ;
#87 = APPLICATION_PROTOCOL_DEFINITION ( 'international standard', 'config_control_design', 1994, #155 ) ;
#88 = APPROVAL ( #126, 'UNSPECIFIED' ) ;
#89 = CIRCLE ( 'NONE', #92, 8.624999999999998200 ) ;
#90 = PERSON_AND_ORGANIZATION ( #115, #151 ) ;
#91 = VERTEX_POINT ( 'NONE', #152 ) ;
#92 = AXIS2_PLACEMENT_3D ( 'NONE', #36, #173, #116 ) ;
#93 = PLANE ( 'NONE',  #32 ) ;
#94 = CALENDAR_DATE ( 2017, 12, 4 ) ;
#95 = DIRECTION ( 'NONE',  ( 1.000000000000000000, 0.0000000000000000000, 0.0000000000000000000 ) ) ;
#96 = DATE_AND_TIME ( #130, #172 ) ;
#97 = EDGE_LOOP ( 'NONE', ( #83, #120 ) ) ;
#98 = APPLICATION_PROTOCOL_DEFINITION ( 'international standard', 'config_control_design', 1994, #104 ) ;
#99 = DATE_TIME_ROLE ( 'classification_date' ) ;
#100 = APPROVAL_DATE_TIME ( #135, #158 ) ;
#101 = ADVANCED_FACE ( 'NONE', ( #86 ), #53, .T. ) ;
#102 = DATE_TIME_ROLE ( 'creation_date' ) ;
#103 = DIRECTION ( 'NONE',  ( 1.000000000000000000, 0.0000000000000000000, -0.0000000000000000000 ) ) ;
#104 = APPLICATION_CONTEXT ( 'configuration controlled 3d designs of mechanical parts and assemblies' ) ;
#105 = CC_DESIGN_PERSON_AND_ORGANIZATION_ASSIGNMENT ( #123, #147, ( #144 ) ) ;
#106 = APPROVAL_PERSON_ORGANIZATION ( #139, #158, #10 ) ;
#107 = APPROVAL_ROLE ( '' ) ;
#108 = SHAPE_DEFINITION_REPRESENTATION ( #160, #29 ) ;
#109 = PRODUCT_DEFINITION ( 'UNKNOWN', '', #144, #34 ) ;
#110 = ADVANCED_FACE ( 'NONE', ( #5 ), #174, .T. ) ;
#111 = CARTESIAN_POINT ( 'NONE',  ( 0.0000000000000000000, 0.0000000000000000000, 1.000000000000000000 ) ) ;
#112 = CARTESIAN_POINT ( 'NONE',  ( 8.624999999999998200, 1.056257864264591800E-015, -1.000000000000000000 ) ) ;
#113 = AXIS2_PLACEMENT_3D ( 'NONE', #6, #138, #66 ) ;
#114 = CALENDAR_DATE ( 2017, 12, 4 ) ;
#115 = PERSON ( 'UNSPECIFIED', 'UNSPECIFIED', 'UNSPECIFIED', ('UNSPECIFIED'), ('UNSPECIFIED'), ('UNSPECIFIED') ) ;
#116 = DIRECTION ( 'NONE',  ( 1.000000000000000000, 0.0000000000000000000, 0.0000000000000000000 ) ) ;
#117 = CIRCLE ( 'NONE', #41, 8.624999999999998200 ) ;
#118 = CC_DESIGN_PERSON_AND_ORGANIZATION_ASSIGNMENT ( #162, #79, ( #144 ) ) ;
#119 = DATE_AND_TIME ( #153, #19 ) ;
#120 = ORIENTED_EDGE ( 'NONE', *, *, #76, .T. ) ;
#121 = CARTESIAN_POINT ( 'NONE',  ( 8.624999999999998200, 1.056257864264591800E-015, 1.000000000000000000 ) ) ;
#122 = FACE_OUTER_BOUND ( 'NONE', #154, .T. ) ;
#123 = PERSON_AND_ORGANIZATION ( #115, #151 ) ;
#124 = CARTESIAN_POINT ( 'NONE',  ( -8.624999999999998200, 0.0000000000000000000, -1.000000000000000000 ) ) ;
#125 = ORIENTED_EDGE ( 'NONE', *, *, #65, .F. ) ;
#126 = APPROVAL_STATUS ( 'not_yet_approved' ) ;
#127 = LOCAL_TIME ( 13, 42, 50.00000000000000000, #167 ) ;
#128 = VERTEX_POINT ( 'NONE', #121 ) ;
#129 = AXIS2_PLACEMENT_3D ( 'NONE', #74, #35, #84 ) ;
#130 = CALENDAR_DATE ( 2017, 12, 4 ) ;
#131 = AXIS2_PLACEMENT_3D ( 'NONE', #165, #161, #1 ) ;
#132 = DIRECTION ( 'NONE',  ( 1.000000000000000000, 0.0000000000000000000, 0.0000000000000000000 ) ) ;
#133 = CARTESIAN_POINT ( 'NONE',  ( 0.0000000000000000000, 0.0000000000000000000, 1.000000000000000000 ) ) ;
#134 = CARTESIAN_POINT ( 'NONE',  ( 0.0000000000000000000, 0.0000000000000000000, -1.000000000000000000 ) ) ;
#135 = DATE_AND_TIME ( #175, #37 ) ;
#136 = DIRECTION ( 'NONE',  ( -1.000000000000000000, 0.0000000000000000000, 0.0000000000000000000 ) ) ;
#137 = ORIENTED_EDGE ( 'NONE', *, *, #141, .T. ) ;
#138 = DIRECTION ( 'NONE',  ( 0.0000000000000000000, 0.0000000000000000000, 1.000000000000000000 ) ) ;
#139 = PERSON_AND_ORGANIZATION ( #115, #151 ) ;
#140 = PERSON_AND_ORGANIZATION_ROLE ( 'design_owner' ) ;
#141 = EDGE_CURVE ( 'NONE', #128, #27, #157, .T. ) ;
#142 = CARTESIAN_POINT ( 'NONE',  ( 0.0000000000000000000, 0.0000000000000000000, 1.000000000000000000 ) ) ;
#143 = LINE ( 'NONE', #58, #75 ) ;
#144 = PRODUCT_DEFINITION_FORMATION_WITH_SPECIFIED_SOURCE ( 'ANY', '', #26, .NOT_KNOWN. ) ;
#145 = ORIENTED_EDGE ( 'NONE', *, *, #14, .T. ) ;
#146 = DIRECTION ( 'NONE',  ( 0.0000000000000000000, 0.0000000000000000000, 1.000000000000000000 ) ) ;
#147 = PERSON_AND_ORGANIZATION_ROLE ( 'design_supplier' ) ;
#148 = LOCAL_TIME ( 13, 42, 50.00000000000000000, #12 ) ;
#149 = EDGE_LOOP ( 'NONE', ( #25, #137, #164, #55 ) ) ;
#150 = CC_DESIGN_APPROVAL ( #158, ( #109 ) ) ;
#151 = ORGANIZATION ( 'UNSPECIFIED', 'UNSPECIFIED', '' ) ;
#152 = CARTESIAN_POINT ( 'NONE',  ( -8.624999999999998200, 0.0000000000000000000, 1.000000000000000000 ) ) ;
#153 = CALENDAR_DATE ( 2017, 12, 4 ) ;
#154 = EDGE_LOOP ( 'NONE', ( #11, #125 ) ) ;
#155 = APPLICATION_CONTEXT ( 'configuration controlled 3d designs of mechanical parts and assemblies' ) ;
#156 = UNCERTAINTY_MEASURE_WITH_UNIT (LENGTH_MEASURE( 1.000000000000000100E-005 ), #52, 'distance_accuracy_value', 'NONE');
#157 = LINE ( 'NONE', #42, #8 ) ;
#158 = APPROVAL ( #40, 'UNSPECIFIED' ) ;
#159 = DIRECTION ( 'NONE',  ( -0.0000000000000000000, -0.0000000000000000000, -1.000000000000000000 ) ) ;
#160 = PRODUCT_DEFINITION_SHAPE ( 'NONE', 'NONE',  #109 ) ;
#161 = DIRECTION ( 'NONE',  ( 0.0000000000000000000, 0.0000000000000000000, 1.000000000000000000 ) ) ;
#162 = PERSON_AND_ORGANIZATION ( #115, #151 ) ;
#163 = EDGE_LOOP ( 'NONE', ( #13, #169, #145, #20 ) ) ;
#164 = ORIENTED_EDGE ( 'NONE', *, *, #65, .T. ) ;
#165 = CARTESIAN_POINT ( 'NONE',  ( 0.0000000000000000000, 0.0000000000000000000, 0.0000000000000000000 ) ) ;
#166 = CC_DESIGN_APPROVAL ( #88, ( #144 ) ) ;
#167 = COORDINATED_UNIVERSAL_TIME_OFFSET ( 5, 0, .BEHIND. ) ;
#168 = DIRECTION ( 'NONE',  ( -0.0000000000000000000, -0.0000000000000000000, -1.000000000000000000 ) ) ;
#169 = ORIENTED_EDGE ( 'NONE', *, *, #18, .F. ) ;
#170 = ADVANCED_FACE ( 'NONE', ( #43 ), #73, .T. ) ;
#171 = AXIS2_PLACEMENT_3D ( 'NONE', #142, #159, #136 ) ;
#172 = LOCAL_TIME ( 13, 42, 50.00000000000000000, #33 ) ;
#173 = DIRECTION ( 'NONE',  ( 0.0000000000000000000, 0.0000000000000000000, 1.000000000000000000 ) ) ;
#174 = CYLINDRICAL_SURFACE ( 'NONE', #7, 8.624999999999998200 ) ;
#175 = CALENDAR_DATE ( 2017, 12, 4 ) ;
ENDSEC;
END-ISO-10303-21;
