ISO-10303-21;
HEADER;
FILE_DESCRIPTION (( 'STEP AP203' ),
    '1' );
FILE_NAME ('Web Model 68408.STEP',
    '2017-01-31T19:58:28',
    ( '' ),
    ( '' ),
    'SwSTEP 2.0',
    'SolidWorks 2016',
    '' );
FILE_SCHEMA (( 'CONFIG_CONTROL_DESIGN' ));
ENDSEC;

DATA;
#1 = VECTOR ( 'NONE', #225, 1000.000000000000000 ) ;
#2 = PLANE ( 'NONE',  #154 ) ;
#3 = SECURITY_CLASSIFICATION ( '', '', #184 ) ;
#4 = ORIENTED_EDGE ( 'NONE', *, *, #180, .T. ) ;
#5 = DIRECTION ( 'NONE',  ( -0.0000000000000000000, -0.0000000000000000000, -1.000000000000000000 ) ) ;
#6 = MECHANICAL_CONTEXT ( 'NONE', #87, 'mechanical' ) ;
#7 = VERTEX_POINT ( 'NONE', #166 ) ;
#8 =( LENGTH_UNIT ( ) NAMED_UNIT ( * ) SI_UNIT ( .MILLI., .METRE. ) );
#9 =( NAMED_UNIT ( * ) PLANE_ANGLE_UNIT ( ) SI_UNIT ( $, .RADIAN. ) );
#10 = VERTEX_POINT ( 'NONE', #162 ) ;
#11 = FACE_OUTER_BOUND ( 'NONE', #229, .T. ) ;
#12 = AXIS2_PLACEMENT_3D ( 'NONE', #65, #37, #118 ) ;
#13 = APPROVAL_PERSON_ORGANIZATION ( #109, #144, #72 ) ;
#14 = ORIENTED_EDGE ( 'NONE', *, *, #195, .F. ) ;
#15 = EDGE_CURVE ( 'NONE', #203, #236, #23, .T. ) ;
#16 = CC_DESIGN_PERSON_AND_ORGANIZATION_ASSIGNMENT ( #69, #168, ( #112 ) ) ;
#17 = APPROVAL_DATE_TIME ( #57, #144 ) ;
#18 = CARTESIAN_POINT ( 'NONE',  ( -12.50000000000000000, 19.00000000000000000, 0.0000000000000000000 ) ) ;
#19 = CARTESIAN_POINT ( 'NONE',  ( -12.50000000000000000, 19.00000000000000000, 0.0000000000000000000 ) ) ;
#20 = ORIENTED_EDGE ( 'NONE', *, *, #75, .F. ) ;
#21 = PRODUCT_DEFINITION ( 'UNKNOWN', '', #112, #97 ) ;
#22 = APPLICATION_CONTEXT ( 'configuration controlled 3d designs of mechanical parts and assemblies' ) ;
#23 = LINE ( 'NONE', #61, #1 ) ;
#24 = CARTESIAN_POINT ( 'NONE',  ( 12.50000000000000000, 19.00000000000000400, 3.000000000000000000 ) ) ;
#25 = LOCAL_TIME ( 14, 58, 28.00000000000000000, #218 ) ;
#26 = DIRECTION ( 'NONE',  ( 0.0000000000000000000, 0.0000000000000000000, 1.000000000000000000 ) ) ;
#27 = CARTESIAN_POINT ( 'NONE',  ( 0.0000000000000000000, 0.0000000000000000000, 0.0000000000000000000 ) ) ;
#28 = ORIENTED_EDGE ( 'NONE', *, *, #136, .F. ) ;
#29 = LINE ( 'NONE', #38, #191 ) ;
#30 = UNCERTAINTY_MEASURE_WITH_UNIT (LENGTH_MEASURE( 1.000000000000000100E-005 ), #8, 'distance_accuracy_value', 'NONE');
#31 = LINE ( 'NONE', #124, #137 ) ;
#32 = EDGE_LOOP ( 'NONE', ( #119, #209, #189, #48 ) ) ;
#33 = ORIENTED_EDGE ( 'NONE', *, *, #190, .F. ) ;
#34 = APPROVAL ( #101, 'UNSPECIFIED' ) ;
#35 = DIRECTION ( 'NONE',  ( 1.369518533665900300E-016, -1.000000000000000000, 0.0000000000000000000 ) ) ;
#36 = VECTOR ( 'NONE', #164, 1000.000000000000000 ) ;
#37 = DIRECTION ( 'NONE',  ( 1.000000000000000000, 1.369518533665900100E-016, -0.0000000000000000000 ) ) ;
#38 = CARTESIAN_POINT ( 'NONE',  ( 12.50000000000000500, -18.99999999999999600, 3.000000000000000000 ) ) ;
#39 = PRODUCT_DEFINITION_SHAPE ( 'NONE', 'NONE',  #21 ) ;
#40 = PERSON_AND_ORGANIZATION_ROLE ( 'design_owner' ) ;
#41 = DIRECTION ( 'NONE',  ( 0.0000000000000000000, 0.0000000000000000000, -1.000000000000000000 ) ) ;
#42 = LINE ( 'NONE', #198, #58 ) ;
#43 = DIRECTION ( 'NONE',  ( -1.000000000000000000, -1.369518533665900100E-016, 0.0000000000000000000 ) ) ;
#44 = PERSON_AND_ORGANIZATION ( #127, #235 ) ;
#45 = PERSON_AND_ORGANIZATION_ROLE ( 'classification_officer' ) ;
#46 = PERSON_AND_ORGANIZATION ( #127, #235 ) ;
#47 = AXIS2_PLACEMENT_3D ( 'NONE', #27, #26, #125 ) ;
#48 = ORIENTED_EDGE ( 'NONE', *, *, #86, .T. ) ;
#49 = CC_DESIGN_APPROVAL ( #34, ( #21 ) ) ;
#50 = MANIFOLD_SOLID_BREP ( 'Extrude1', #107 ) ;
#51 = ADVANCED_FACE ( 'NONE', ( #217 ), #2, .F. ) ;
#52 = ADVANCED_FACE ( 'NONE', ( #139 ), #84, .F. ) ;
#53 = VECTOR ( 'NONE', #35, 1000.000000000000000 ) ;
#54 = FACE_OUTER_BOUND ( 'NONE', #92, .T. ) ;
#55 = ORIENTED_EDGE ( 'NONE', *, *, #190, .T. ) ;
#56 = ORIENTED_EDGE ( 'NONE', *, *, #142, .F. ) ;
#57 = DATE_AND_TIME ( #206, #25 ) ;
#58 = VECTOR ( 'NONE', #85, 1000.000000000000000 ) ;
#59 = DIRECTION ( 'NONE',  ( 0.0000000000000000000, 0.0000000000000000000, -1.000000000000000000 ) ) ;
#60 = LINE ( 'NONE', #83, #227 ) ;
#61 = CARTESIAN_POINT ( 'NONE',  ( 12.50000000000000000, 19.00000000000000400, 3.000000000000000000 ) ) ;
#62 = ORIENTED_EDGE ( 'NONE', *, *, #15, .F. ) ;
#63 = CARTESIAN_POINT ( 'NONE',  ( 12.50000000000000000, 19.00000000000000400, 3.000000000000000000 ) ) ;
#64 = CC_DESIGN_PERSON_AND_ORGANIZATION_ASSIGNMENT ( #44, #40, ( #106 ) ) ;
#65 = CARTESIAN_POINT ( 'NONE',  ( -12.50000000000000000, 19.00000000000000000, 3.000000000000000000 ) ) ;
#66 = ORIENTED_EDGE ( 'NONE', *, *, #126, .T. ) ;
#67 = CC_DESIGN_PERSON_AND_ORGANIZATION_ASSIGNMENT ( #131, #150, ( #21 ) ) ;
#68 = DIRECTION ( 'NONE',  ( -1.369518533665900300E-016, 1.000000000000000000, -0.0000000000000000000 ) ) ;
#69 = PERSON_AND_ORGANIZATION ( #127, #235 ) ;
#70 = LINE ( 'NONE', #116, #171 ) ;
#71 = DIRECTION ( 'NONE',  ( -0.0000000000000000000, -0.0000000000000000000, -1.000000000000000000 ) ) ;
#72 = APPROVAL_ROLE ( '' ) ;
#73 = PLANE ( 'NONE',  #161 ) ;
#74 = PERSON_AND_ORGANIZATION ( #127, #235 ) ;
#75 = EDGE_CURVE ( 'NONE', #173, #172, #178, .T. ) ;
#76 = ORIENTED_EDGE ( 'NONE', *, *, #169, .T. ) ;
#77 = DATE_AND_TIME ( #232, #128 ) ;
#78 = ORIENTED_EDGE ( 'NONE', *, *, #180, .F. ) ;
#79 = COORDINATED_UNIVERSAL_TIME_OFFSET ( 5, 0, .BEHIND. ) ;
#80 = PLANE ( 'NONE',  #12 ) ;
#81 = DIRECTION ( 'NONE',  ( 1.000000000000000000, 1.387778780781445700E-016, -0.0000000000000000000 ) ) ;
#82 = CC_DESIGN_PERSON_AND_ORGANIZATION_ASSIGNMENT ( #234, #45, ( #3 ) ) ;
#83 = CARTESIAN_POINT ( 'NONE',  ( 12.50000000000000000, 19.00000000000000400, 0.0000000000000000000 ) ) ;
#84 = PLANE ( 'NONE',  #135 ) ;
#85 = DIRECTION ( 'NONE',  ( 1.369518533665900300E-016, -1.000000000000000000, 0.0000000000000000000 ) ) ;
#86 = EDGE_CURVE ( 'NONE', #236, #10, #233, .T. ) ;
#87 = APPLICATION_CONTEXT ( 'configuration controlled 3d designs of mechanical parts and assemblies' ) ;
#88 = SHAPE_DEFINITION_REPRESENTATION ( #39, #185 ) ;
#89 = CC_DESIGN_APPROVAL ( #176, ( #3 ) ) ;
#90 = APPROVAL_STATUS ( 'not_yet_approved' ) ;
#91 = PERSON_AND_ORGANIZATION_ROLE ( 'creator' ) ;
#92 = EDGE_LOOP ( 'NONE', ( #76, #78, #62, #66 ) ) ;
#93 = AXIS2_PLACEMENT_3D ( 'NONE', #102, #41, #121 ) ;
#94 = LINE ( 'NONE', #196, #36 ) ;
#95 = CARTESIAN_POINT ( 'NONE',  ( 12.50000000000000000, 19.00000000000000400, 3.000000000000000000 ) ) ;
#96 = LINE ( 'NONE', #145, #193 ) ;
#97 = DESIGN_CONTEXT ( 'detailed design', #22, 'design' ) ;
#98 = DIRECTION ( 'NONE',  ( 1.000000000000000000, 1.387778780781445400E-016, 0.0000000000000000000 ) ) ;
#99 = CC_DESIGN_DATE_AND_TIME_ASSIGNMENT ( #77, #167, ( #21 ) ) ;
#100 = CALENDAR_DATE ( 2017, 31, 1 ) ;
#101 = APPROVAL_STATUS ( 'not_yet_approved' ) ;
#102 = CARTESIAN_POINT ( 'NONE',  ( -12.49999999999999500, -19.00000000000000000, 0.0000000000000000000 ) ) ;
#103 = ORIENTED_EDGE ( 'NONE', *, *, #156, .F. ) ;
#104 =( GEOMETRIC_REPRESENTATION_CONTEXT ( 3 ) GLOBAL_UNCERTAINTY_ASSIGNED_CONTEXT ( ( #30 ) ) GLOBAL_UNIT_ASSIGNED_CONTEXT ( ( #8, #9, #199 ) ) REPRESENTATION_CONTEXT ( 'NONE', 'WORKASPACE' ) );
#105 = EDGE_LOOP ( 'NONE', ( #170, #56, #103, #143 ) ) ;
#106 = PRODUCT ( 'Web Model 68408', 'Web Model 68408', '', ( #6 ) ) ;
#107 = CLOSED_SHELL ( 'NONE', ( #155, #52, #216, #129, #51, #202 ) ) ;
#108 = PRODUCT_RELATED_PRODUCT_CATEGORY ( 'detail', '', ( #106 ) ) ;
#109 = PERSON_AND_ORGANIZATION ( #127, #235 ) ;
#110 = EDGE_CURVE ( 'NONE', #187, #203, #186, .T. ) ;
#111 = VERTEX_POINT ( 'NONE', #177 ) ;
#112 = PRODUCT_DEFINITION_FORMATION_WITH_SPECIFIED_SOURCE ( 'ANY', '', #106, .NOT_KNOWN. ) ;
#113 = LOCAL_TIME ( 14, 58, 28.00000000000000000, #79 ) ;
#114 = COORDINATED_UNIVERSAL_TIME_OFFSET ( 5, 0, .BEHIND. ) ;
#115 = APPROVAL_DATE_TIME ( #204, #176 ) ;
#116 = CARTESIAN_POINT ( 'NONE',  ( 12.50000000000000000, 19.00000000000000400, 0.0000000000000000000 ) ) ;
#117 = DIRECTION ( 'NONE',  ( -1.000000000000000000, 0.0000000000000000000, -0.0000000000000000000 ) ) ;
#118 = DIRECTION ( 'NONE',  ( -1.369518533665900100E-016, 1.000000000000000000, 0.0000000000000000000 ) ) ;
#119 = ORIENTED_EDGE ( 'NONE', *, *, #156, .T. ) ;
#120 = FACE_OUTER_BOUND ( 'NONE', #159, .T. ) ;
#121 = DIRECTION ( 'NONE',  ( -1.000000000000000000, 0.0000000000000000000, -0.0000000000000000000 ) ) ;
#122 = CC_DESIGN_DATE_AND_TIME_ASSIGNMENT ( #175, #200, ( #3 ) ) ;
#123 = LINE ( 'NONE', #222, #148 ) ;
#124 = CARTESIAN_POINT ( 'NONE',  ( -12.50000000000000000, 19.00000000000000000, 3.000000000000000000 ) ) ;
#125 = DIRECTION ( 'NONE',  ( 1.000000000000000000, 0.0000000000000000000, 0.0000000000000000000 ) ) ;
#126 = EDGE_CURVE ( 'NONE', #203, #111, #29, .T. ) ;
#127 = PERSON ( 'UNSPECIFIED', 'UNSPECIFIED', 'UNSPECIFIED', ('UNSPECIFIED'), ('UNSPECIFIED'), ('UNSPECIFIED') ) ;
#128 = LOCAL_TIME ( 14, 58, 28.00000000000000000, #231 ) ;
#129 = ADVANCED_FACE ( 'NONE', ( #120 ), #160, .F. ) ;
#130 = CALENDAR_DATE ( 2017, 31, 1 ) ;
#131 = PERSON_AND_ORGANIZATION ( #127, #235 ) ;
#132 = ORIENTED_EDGE ( 'NONE', *, *, #126, .F. ) ;
#133 = VECTOR ( 'NONE', #197, 1000.000000000000000 ) ;
#134 = LOCAL_TIME ( 14, 58, 28.00000000000000000, #188 ) ;
#135 = AXIS2_PLACEMENT_3D ( 'NONE', #192, #179, #141 ) ;
#136 = EDGE_CURVE ( 'NONE', #172, #111, #96, .T. ) ;
#137 = VECTOR ( 'NONE', #71, 1000.000000000000000 ) ;
#138 = CARTESIAN_POINT ( 'NONE',  ( 12.50000000000000500, -18.99999999999999600, 3.000000000000000000 ) ) ;
#139 = FACE_OUTER_BOUND ( 'NONE', #214, .T. ) ;
#140 = CARTESIAN_POINT ( 'NONE',  ( -12.49999999999999500, -19.00000000000000000, 0.0000000000000000000 ) ) ;
#141 = DIRECTION ( 'NONE',  ( -1.000000000000000000, -1.387778780781445400E-016, 0.0000000000000000000 ) ) ;
#142 = EDGE_CURVE ( 'NONE', #187, #172, #94, .T. ) ;
#143 = ORIENTED_EDGE ( 'NONE', *, *, #195, .T. ) ;
#144 = APPROVAL ( #183, 'UNSPECIFIED' ) ;
#145 = CARTESIAN_POINT ( 'NONE',  ( 12.50000000000000500, -18.99999999999999600, 0.0000000000000000000 ) ) ;
#146 = ORIENTED_EDGE ( 'NONE', *, *, #136, .T. ) ;
#147 = APPLICATION_PROTOCOL_DEFINITION ( 'international standard', 'config_control_design', 1994, #87 ) ;
#148 = VECTOR ( 'NONE', #208, 1000.000000000000000 ) ;
#149 = APPROVAL_ROLE ( '' ) ;
#150 = PERSON_AND_ORGANIZATION_ROLE ( 'creator' ) ;
#151 = AXIS2_PLACEMENT_3D ( 'NONE', #95, #210, #98 ) ;
#152 = APPROVAL_DATE_TIME ( #219, #34 ) ;
#153 = PLANE ( 'NONE',  #93 ) ;
#154 = AXIS2_PLACEMENT_3D ( 'NONE', #194, #59, #117 ) ;
#155 = ADVANCED_FACE ( 'NONE', ( #174 ), #80, .F. ) ;
#156 = EDGE_CURVE ( 'NONE', #10, #187, #42, .T. ) ;
#157 = CC_DESIGN_APPROVAL ( #144, ( #112 ) ) ;
#158 = PERSON_AND_ORGANIZATION ( #127, #235 ) ;
#159 = EDGE_LOOP ( 'NONE', ( #55, #14, #224, #4 ) ) ;
#160 = PLANE ( 'NONE',  #151 ) ;
#161 = AXIS2_PLACEMENT_3D ( 'NONE', #230, #43, #226 ) ;
#162 = CARTESIAN_POINT ( 'NONE',  ( -12.50000000000000000, 19.00000000000000000, 3.000000000000000000 ) ) ;
#163 = ORIENTED_EDGE ( 'NONE', *, *, #110, .F. ) ;
#164 = DIRECTION ( 'NONE',  ( -0.0000000000000000000, -0.0000000000000000000, -1.000000000000000000 ) ) ;
#165 = APPROVAL_PERSON_ORGANIZATION ( #46, #176, #228 ) ;
#166 = CARTESIAN_POINT ( 'NONE',  ( 12.50000000000000000, 19.00000000000000400, 0.0000000000000000000 ) ) ;
#167 = DATE_TIME_ROLE ( 'creation_date' ) ;
#168 = PERSON_AND_ORGANIZATION_ROLE ( 'design_supplier' ) ;
#169 = EDGE_CURVE ( 'NONE', #111, #7, #70, .T. ) ;
#170 = ORIENTED_EDGE ( 'NONE', *, *, #75, .T. ) ;
#171 = VECTOR ( 'NONE', #68, 1000.000000000000000 ) ;
#172 = VERTEX_POINT ( 'NONE', #140 ) ;
#173 = VERTEX_POINT ( 'NONE', #19 ) ;
#174 = FACE_OUTER_BOUND ( 'NONE', #105, .T. ) ;
#175 = DATE_AND_TIME ( #100, #113 ) ;
#176 = APPROVAL ( #90, 'UNSPECIFIED' ) ;
#177 = CARTESIAN_POINT ( 'NONE',  ( 12.50000000000000500, -18.99999999999999600, 0.0000000000000000000 ) ) ;
#178 = LINE ( 'NONE', #18, #53 ) ;
#179 = DIRECTION ( 'NONE',  ( -1.387778780781445400E-016, 1.000000000000000000, 0.0000000000000000000 ) ) ;
#180 = EDGE_CURVE ( 'NONE', #236, #7, #123, .T. ) ;
#181 = VECTOR ( 'NONE', #207, 1000.000000000000000 ) ;
#182 = CARTESIAN_POINT ( 'NONE',  ( -12.49999999999999500, -19.00000000000000000, 3.000000000000000000 ) ) ;
#183 = APPROVAL_STATUS ( 'not_yet_approved' ) ;
#184 = SECURITY_CLASSIFICATION_LEVEL ( 'unclassified' ) ;
#185 = ADVANCED_BREP_SHAPE_REPRESENTATION ( 'Web Model 68408', ( #50, #47 ), #104 ) ;
#186 = LINE ( 'NONE', #138, #181 ) ;
#187 = VERTEX_POINT ( 'NONE', #182 ) ;
#188 = COORDINATED_UNIVERSAL_TIME_OFFSET ( 5, 0, .BEHIND. ) ;
#189 = ORIENTED_EDGE ( 'NONE', *, *, #15, .T. ) ;
#190 = EDGE_CURVE ( 'NONE', #7, #173, #60, .T. ) ;
#191 = VECTOR ( 'NONE', #5, 1000.000000000000000 ) ;
#192 = CARTESIAN_POINT ( 'NONE',  ( 12.50000000000000500, -18.99999999999999600, 3.000000000000000000 ) ) ;
#193 = VECTOR ( 'NONE', #81, 1000.000000000000000 ) ;
#194 = CARTESIAN_POINT ( 'NONE',  ( -12.49999999999999500, -19.00000000000000000, 3.000000000000000000 ) ) ;
#195 = EDGE_CURVE ( 'NONE', #10, #173, #31, .T. ) ;
#196 = CARTESIAN_POINT ( 'NONE',  ( -12.49999999999999500, -19.00000000000000000, 3.000000000000000000 ) ) ;
#197 = DIRECTION ( 'NONE',  ( -1.000000000000000000, -1.387778780781445700E-016, 0.0000000000000000000 ) ) ;
#198 = CARTESIAN_POINT ( 'NONE',  ( -12.50000000000000000, 19.00000000000000000, 3.000000000000000000 ) ) ;
#199 =( NAMED_UNIT ( * ) SI_UNIT ( $, .STERADIAN. ) SOLID_ANGLE_UNIT ( ) );
#200 = DATE_TIME_ROLE ( 'classification_date' ) ;
#201 = ORIENTED_EDGE ( 'NONE', *, *, #142, .T. ) ;
#202 = ADVANCED_FACE ( 'NONE', ( #11 ), #153, .T. ) ;
#203 = VERTEX_POINT ( 'NONE', #211 ) ;
#204 = DATE_AND_TIME ( #130, #134 ) ;
#205 = CALENDAR_DATE ( 2017, 31, 1 ) ;
#206 = CALENDAR_DATE ( 2017, 31, 1 ) ;
#207 = DIRECTION ( 'NONE',  ( 1.000000000000000000, 1.387778780781445700E-016, -0.0000000000000000000 ) ) ;
#208 = DIRECTION ( 'NONE',  ( -0.0000000000000000000, -0.0000000000000000000, -1.000000000000000000 ) ) ;
#209 = ORIENTED_EDGE ( 'NONE', *, *, #110, .T. ) ;
#210 = DIRECTION ( 'NONE',  ( 1.387778780781445400E-016, -1.000000000000000000, 0.0000000000000000000 ) ) ;
#211 = CARTESIAN_POINT ( 'NONE',  ( 12.50000000000000500, -18.99999999999999600, 3.000000000000000000 ) ) ;
#212 = APPLICATION_PROTOCOL_DEFINITION ( 'international standard', 'config_control_design', 1994, #22 ) ;
#213 = DIRECTION ( 'NONE',  ( -1.000000000000000000, -1.387778780781445700E-016, 0.0000000000000000000 ) ) ;
#214 = EDGE_LOOP ( 'NONE', ( #146, #132, #163, #201 ) ) ;
#215 = APPROVAL_PERSON_ORGANIZATION ( #74, #34, #149 ) ;
#216 = ADVANCED_FACE ( 'NONE', ( #54 ), #73, .F. ) ;
#217 = FACE_OUTER_BOUND ( 'NONE', #32, .T. ) ;
#218 = COORDINATED_UNIVERSAL_TIME_OFFSET ( 5, 0, .BEHIND. ) ;
#219 = DATE_AND_TIME ( #205, #221 ) ;
#220 = CC_DESIGN_PERSON_AND_ORGANIZATION_ASSIGNMENT ( #158, #91, ( #112 ) ) ;
#221 = LOCAL_TIME ( 14, 58, 28.00000000000000000, #114 ) ;
#222 = CARTESIAN_POINT ( 'NONE',  ( 12.50000000000000000, 19.00000000000000400, 3.000000000000000000 ) ) ;
#223 = ORIENTED_EDGE ( 'NONE', *, *, #169, .F. ) ;
#224 = ORIENTED_EDGE ( 'NONE', *, *, #86, .F. ) ;
#225 = DIRECTION ( 'NONE',  ( -1.369518533665900300E-016, 1.000000000000000000, -0.0000000000000000000 ) ) ;
#226 = DIRECTION ( 'NONE',  ( 1.369518533665900100E-016, -1.000000000000000000, 0.0000000000000000000 ) ) ;
#227 = VECTOR ( 'NONE', #213, 1000.000000000000000 ) ;
#228 = APPROVAL_ROLE ( '' ) ;
#229 = EDGE_LOOP ( 'NONE', ( #20, #33, #223, #28 ) ) ;
#230 = CARTESIAN_POINT ( 'NONE',  ( 12.50000000000000000, 19.00000000000000400, 3.000000000000000000 ) ) ;
#231 = COORDINATED_UNIVERSAL_TIME_OFFSET ( 5, 0, .BEHIND. ) ;
#232 = CALENDAR_DATE ( 2017, 31, 1 ) ;
#233 = LINE ( 'NONE', #63, #133 ) ;
#234 = PERSON_AND_ORGANIZATION ( #127, #235 ) ;
#235 = ORGANIZATION ( 'UNSPECIFIED', 'UNSPECIFIED', '' ) ;
#236 = VERTEX_POINT ( 'NONE', #24 ) ;
#237 = CC_DESIGN_SECURITY_CLASSIFICATION ( #3, ( #112 ) ) ;
ENDSEC;
END-ISO-10303-21;
