ISO-10303-21;
HEADER;
FILE_DESCRIPTION (( 'STEP AP203' ),
    '1' );
FILE_NAME ('Web Model 46097_46097.step',
    '2017-03-01T20:50:33',
    ( '' ),
    ( '' ),
    'SwSTEP 2.0',
    'SolidWorks 2016',
    '' );
FILE_SCHEMA (( 'CONFIG_CONTROL_DESIGN' ));
ENDSEC;

DATA;
#1 = AXIS2_PLACEMENT_3D ( 'NONE', #30, #20, #48 ) ;
#2 = ORIENTED_EDGE ( 'NONE', *, *, #127, .T. ) ;
#3 = ORIENTED_EDGE ( 'NONE', *, *, #208, .T. ) ;
#4 = PRODUCT_DEFINITION_FORMATION_WITH_SPECIFIED_SOURCE ( 'ANY', '', #183, .NOT_KNOWN. ) ;
#5 =( GEOMETRIC_REPRESENTATION_CONTEXT ( 3 ) GLOBAL_UNCERTAINTY_ASSIGNED_CONTEXT ( ( #187 ) ) GLOBAL_UNIT_ASSIGNED_CONTEXT ( ( #120, #13, #135 ) ) REPRESENTATION_CONTEXT ( 'NONE', 'WORKASPACE' ) );
#6 = LOCAL_TIME ( 15, 50, 33.00000000000000000, #47 ) ;
#7 = LINE ( 'NONE', #62, #144 ) ;
#8 = PRODUCT_DEFINITION_SHAPE ( 'NONE', 'NONE',  #84 ) ;
#9 = CARTESIAN_POINT ( 'NONE',  ( 0.0000000000000000000, 0.0000000000000000000, 3.000000000000000000 ) ) ;
#10 = CALENDAR_DATE ( 2017, 1, 3 ) ;
#11 = DIRECTION ( 'NONE',  ( 1.000000000000000000, 0.0000000000000000000, 0.0000000000000000000 ) ) ;
#12 = VECTOR ( 'NONE', #142, 1000.000000000000000 ) ;
#13 =( NAMED_UNIT ( * ) PLANE_ANGLE_UNIT ( ) SI_UNIT ( $, .RADIAN. ) );
#14 = APPROVAL_STATUS ( 'not_yet_approved' ) ;
#15 = CALENDAR_DATE ( 2017, 1, 3 ) ;
#16 = APPROVAL ( #41, 'UNSPECIFIED' ) ;
#17 = PERSON_AND_ORGANIZATION ( #207, #55 ) ;
#18 = AXIS2_PLACEMENT_3D ( 'NONE', #229, #39, #170 ) ;
#19 = VECTOR ( 'NONE', #46, 1000.000000000000000 ) ;
#20 = DIRECTION ( 'NONE',  ( -1.000000000000000000, 0.0000000000000000000, 0.0000000000000000000 ) ) ;
#21 = PLANE ( 'NONE',  #24 ) ;
#22 = FACE_OUTER_BOUND ( 'NONE', #28, .T. ) ;
#23 = CARTESIAN_POINT ( 'NONE',  ( -12.69999999999998900, 12.69999999999998900, 0.0000000000000000000 ) ) ;
#24 = AXIS2_PLACEMENT_3D ( 'NONE', #182, #67, #204 ) ;
#25 = CC_DESIGN_APPROVAL ( #16, ( #4 ) ) ;
#26 = PLANE ( 'NONE',  #18 ) ;
#27 = VERTEX_POINT ( 'NONE', #205 ) ;
#28 = EDGE_LOOP ( 'NONE', ( #223, #169, #86, #91 ) ) ;
#29 = PERSON_AND_ORGANIZATION_ROLE ( 'creator' ) ;
#30 = CARTESIAN_POINT ( 'NONE',  ( 12.70000000000001700, 12.69999999999997400, 3.000000000000000000 ) ) ;
#31 = EDGE_LOOP ( 'NONE', ( #96, #221, #87, #3 ) ) ;
#32 = LOCAL_TIME ( 15, 50, 33.00000000000000000, #76 ) ;
#33 = VERTEX_POINT ( 'NONE', #110 ) ;
#34 = CC_DESIGN_PERSON_AND_ORGANIZATION_ASSIGNMENT ( #231, #61, ( #4 ) ) ;
#35 = APPROVAL_DATE_TIME ( #85, #16 ) ;
#36 = FACE_OUTER_BOUND ( 'NONE', #116, .T. ) ;
#37 = DIRECTION ( 'NONE',  ( 1.000000000000000000, 0.0000000000000000000, 0.0000000000000000000 ) ) ;
#38 = APPROVAL_PERSON_ORGANIZATION ( #94, #16, #173 ) ;
#39 = DIRECTION ( 'NONE',  ( -1.639108796198557500E-015, 1.000000000000000000, 0.0000000000000000000 ) ) ;
#40 = LINE ( 'NONE', #74, #136 ) ;
#41 = APPROVAL_STATUS ( 'not_yet_approved' ) ;
#42 = VERTEX_POINT ( 'NONE', #93 ) ;
#43 = VERTEX_POINT ( 'NONE', #163 ) ;
#44 = DIRECTION ( 'NONE',  ( -0.0000000000000000000, -0.0000000000000000000, -1.000000000000000000 ) ) ;
#45 = CC_DESIGN_PERSON_AND_ORGANIZATION_ASSIGNMENT ( #179, #195, ( #4 ) ) ;
#46 = DIRECTION ( 'NONE',  ( -0.0000000000000000000, 1.000000000000000000, -0.0000000000000000000 ) ) ;
#47 = COORDINATED_UNIVERSAL_TIME_OFFSET ( 5, 0, .BEHIND. ) ;
#48 = DIRECTION ( 'NONE',  ( 0.0000000000000000000, 0.0000000000000000000, 1.000000000000000000 ) ) ;
#49 = VECTOR ( 'NONE', #108, 1000.000000000000000 ) ;
#50 = CARTESIAN_POINT ( 'NONE',  ( 12.70000000000001700, 12.69999999999997400, 3.000000000000000000 ) ) ;
#51 = LOCAL_TIME ( 15, 50, 33.00000000000000000, #106 ) ;
#52 = LINE ( 'NONE', #88, #49 ) ;
#53 = LOCAL_TIME ( 15, 50, 33.00000000000000000, #109 ) ;
#54 = CARTESIAN_POINT ( 'NONE',  ( 12.70000000000001700, -12.69999999999997400, 3.000000000000000000 ) ) ;
#55 = ORGANIZATION ( 'UNSPECIFIED', 'UNSPECIFIED', '' ) ;
#56 = SECURITY_CLASSIFICATION ( '', '', #79 ) ;
#57 = LINE ( 'NONE', #23, #12 ) ;
#58 = AXIS2_PLACEMENT_3D ( 'NONE', #232, #75, #59 ) ;
#59 = DIRECTION ( 'NONE',  ( 1.000000000000000000, 0.0000000000000000000, 0.0000000000000000000 ) ) ;
#60 = EDGE_LOOP ( 'NONE', ( #230, #166, #188, #185 ) ) ;
#61 = PERSON_AND_ORGANIZATION_ROLE ( 'creator' ) ;
#62 = CARTESIAN_POINT ( 'NONE',  ( -12.69999999999998900, 12.69999999999998900, 3.000000000000000000 ) ) ;
#63 = DIRECTION ( 'NONE',  ( 1.000000000000000000, 1.639108796198557500E-015, 0.0000000000000000000 ) ) ;
#64 = FACE_OUTER_BOUND ( 'NONE', #31, .T. ) ;
#65 = DIRECTION ( 'NONE',  ( 1.000000000000000000, 0.0000000000000000000, -0.0000000000000000000 ) ) ;
#66 = ORIENTED_EDGE ( 'NONE', *, *, #164, .T. ) ;
#67 = DIRECTION ( 'NONE',  ( -5.463695987328524500E-016, -1.000000000000000000, 0.0000000000000000000 ) ) ;
#68 = ORIENTED_EDGE ( 'NONE', *, *, #208, .F. ) ;
#69 = CC_DESIGN_PERSON_AND_ORGANIZATION_ASSIGNMENT ( #129, #218, ( #56 ) ) ;
#70 = CC_DESIGN_PERSON_AND_ORGANIZATION_ASSIGNMENT ( #17, #77, ( #183 ) ) ;
#71 = ORIENTED_EDGE ( 'NONE', *, *, #167, .F. ) ;
#72 = APPROVAL_PERSON_ORGANIZATION ( #126, #98, #122 ) ;
#73 = CLOSED_SHELL ( 'NONE', ( #82, #203, #117, #168, #177, #197 ) ) ;
#74 = CARTESIAN_POINT ( 'NONE',  ( -12.69999999999998900, -12.70000000000001700, 3.000000000000000000 ) ) ;
#75 = DIRECTION ( 'NONE',  ( 0.0000000000000000000, 0.0000000000000000000, 1.000000000000000000 ) ) ;
#76 = COORDINATED_UNIVERSAL_TIME_OFFSET ( 5, 0, .BEHIND. ) ;
#77 = PERSON_AND_ORGANIZATION_ROLE ( 'design_owner' ) ;
#78 = VECTOR ( 'NONE', #103, 1000.000000000000000 ) ;
#79 = SECURITY_CLASSIFICATION_LEVEL ( 'unclassified' ) ;
#80 = VERTEX_POINT ( 'NONE', #50 ) ;
#81 = VERTEX_POINT ( 'NONE', #222 ) ;
#82 = ADVANCED_FACE ( 'NONE', ( #22 ), #211, .F. ) ;
#83 = CC_DESIGN_DATE_AND_TIME_ASSIGNMENT ( #171, #105, ( #56 ) ) ;
#84 = PRODUCT_DEFINITION ( 'UNKNOWN', '', #4, #213 ) ;
#85 = DATE_AND_TIME ( #133, #184 ) ;
#86 = ORIENTED_EDGE ( 'NONE', *, *, #152, .F. ) ;
#87 = ORIENTED_EDGE ( 'NONE', *, *, #150, .F. ) ;
#88 = CARTESIAN_POINT ( 'NONE',  ( -12.69999999999998900, 12.69999999999998900, 3.000000000000000000 ) ) ;
#89 = VECTOR ( 'NONE', #118, 1000.000000000000000 ) ;
#90 = ORIENTED_EDGE ( 'NONE', *, *, #104, .F. ) ;
#91 = ORIENTED_EDGE ( 'NONE', *, *, #167, .T. ) ;
#92 = EDGE_LOOP ( 'NONE', ( #199, #68, #90, #159 ) ) ;
#93 = CARTESIAN_POINT ( 'NONE',  ( -12.69999999999998900, 12.69999999999998900, 3.000000000000000000 ) ) ;
#94 = PERSON_AND_ORGANIZATION ( #207, #55 ) ;
#95 = VECTOR ( 'NONE', #145, 1000.000000000000000 ) ;
#96 = ORIENTED_EDGE ( 'NONE', *, *, #115, .T. ) ;
#97 = CARTESIAN_POINT ( 'NONE',  ( -12.69999999999998900, -12.70000000000001700, 0.0000000000000000000 ) ) ;
#98 = APPROVAL ( #234, 'UNSPECIFIED' ) ;
#99 = PERSON_AND_ORGANIZATION ( #207, #55 ) ;
#100 = CARTESIAN_POINT ( 'NONE',  ( 0.0000000000000000000, 0.0000000000000000000, 0.0000000000000000000 ) ) ;
#101 = APPROVAL ( #14, 'UNSPECIFIED' ) ;
#102 = LINE ( 'NONE', #180, #95 ) ;
#103 = DIRECTION ( 'NONE',  ( -0.0000000000000000000, -0.0000000000000000000, -1.000000000000000000 ) ) ;
#104 = EDGE_CURVE ( 'NONE', #81, #178, #215, .T. ) ;
#105 = DATE_TIME_ROLE ( 'classification_date' ) ;
#106 = COORDINATED_UNIVERSAL_TIME_OFFSET ( 5, 0, .BEHIND. ) ;
#107 = LINE ( 'NONE', #128, #148 ) ;
#108 = DIRECTION ( 'NONE',  ( 0.0000000000000000000, -1.000000000000000000, 0.0000000000000000000 ) ) ;
#109 = COORDINATED_UNIVERSAL_TIME_OFFSET ( 5, 0, .BEHIND. ) ;
#110 = CARTESIAN_POINT ( 'NONE',  ( 12.70000000000001700, -12.69999999999997400, 0.0000000000000000000 ) ) ;
#111 = SHAPE_DEFINITION_REPRESENTATION ( #8, #151 ) ;
#112 = CC_DESIGN_APPROVAL ( #98, ( #56 ) ) ;
#113 = VECTOR ( 'NONE', #63, 1000.000000000000000 ) ;
#114 = CC_DESIGN_APPROVAL ( #101, ( #84 ) ) ;
#115 = EDGE_CURVE ( 'NONE', #33, #176, #160, .T. ) ;
#116 = EDGE_LOOP ( 'NONE', ( #123, #189, #225, #139 ) ) ;
#117 = ADVANCED_FACE ( 'NONE', ( #64 ), #143, .F. ) ;
#118 = DIRECTION ( 'NONE',  ( 1.000000000000000000, 1.639108796198557500E-015, 0.0000000000000000000 ) ) ;
#119 = DIRECTION ( 'NONE',  ( -0.0000000000000000000, 0.0000000000000000000, 1.000000000000000000 ) ) ;
#120 =( LENGTH_UNIT ( ) NAMED_UNIT ( * ) SI_UNIT ( .MILLI., .METRE. ) );
#121 = APPLICATION_PROTOCOL_DEFINITION ( 'international standard', 'config_control_design', 1994, #162 ) ;
#122 = APPROVAL_ROLE ( '' ) ;
#123 = ORIENTED_EDGE ( 'NONE', *, *, #138, .F. ) ;
#124 = CC_DESIGN_SECURITY_CLASSIFICATION ( #56, ( #4 ) ) ;
#125 = CC_DESIGN_PERSON_AND_ORGANIZATION_ASSIGNMENT ( #99, #29, ( #84 ) ) ;
#126 = PERSON_AND_ORGANIZATION ( #207, #55 ) ;
#127 = EDGE_CURVE ( 'NONE', #80, #176, #156, .T. ) ;
#128 = CARTESIAN_POINT ( 'NONE',  ( 12.70000000000001700, 12.69999999999997400, 3.000000000000000000 ) ) ;
#129 = PERSON_AND_ORGANIZATION ( #207, #55 ) ;
#130 = FACE_OUTER_BOUND ( 'NONE', #92, .T. ) ;
#131 = PLANE ( 'NONE',  #210 ) ;
#132 = PRODUCT_RELATED_PRODUCT_CATEGORY ( 'detail', '', ( #183 ) ) ;
#133 = CALENDAR_DATE ( 2017, 1, 3 ) ;
#134 = CC_DESIGN_DATE_AND_TIME_ASSIGNMENT ( #141, #158, ( #84 ) ) ;
#135 =( NAMED_UNIT ( * ) SI_UNIT ( $, .STERADIAN. ) SOLID_ANGLE_UNIT ( ) );
#136 = VECTOR ( 'NONE', #191, 1000.000000000000000 ) ;
#137 = APPROVAL_ROLE ( '' ) ;
#138 = EDGE_CURVE ( 'NONE', #27, #43, #57, .T. ) ;
#139 = ORIENTED_EDGE ( 'NONE', *, *, #175, .F. ) ;
#140 = DIRECTION ( 'NONE',  ( -0.0000000000000000000, 0.0000000000000000000, -1.000000000000000000 ) ) ;
#141 = DATE_AND_TIME ( #192, #6 ) ;
#142 = DIRECTION ( 'NONE',  ( 0.0000000000000000000, -1.000000000000000000, 0.0000000000000000000 ) ) ;
#143 = PLANE ( 'NONE',  #1 ) ;
#144 = VECTOR ( 'NONE', #214, 1000.000000000000000 ) ;
#145 = DIRECTION ( 'NONE',  ( -0.0000000000000000000, -0.0000000000000000000, -1.000000000000000000 ) ) ;
#146 = EDGE_LOOP ( 'NONE', ( #66, #71, #181, #2 ) ) ;
#147 = APPROVAL_DATE_TIME ( #198, #101 ) ;
#148 = VECTOR ( 'NONE', #202, 1000.000000000000000 ) ;
#149 = CARTESIAN_POINT ( 'NONE',  ( 12.70000000000001700, 12.69999999999997400, 3.000000000000000000 ) ) ;
#150 = EDGE_CURVE ( 'NONE', #178, #80, #107, .T. ) ;
#151 = ADVANCED_BREP_SHAPE_REPRESENTATION ( 'Web Model 46097_46097', ( #196, #58 ), #5 ) ;
#152 = EDGE_CURVE ( 'NONE', #42, #81, #52, .T. ) ;
#153 = APPROVAL_DATE_TIME ( #206, #98 ) ;
#154 = APPROVAL_PERSON_ORGANIZATION ( #209, #101, #137 ) ;
#155 = DIRECTION ( 'NONE',  ( -0.0000000000000000000, 0.0000000000000000000, 1.000000000000000000 ) ) ;
#156 = LINE ( 'NONE', #149, #212 ) ;
#157 = APPLICATION_PROTOCOL_DEFINITION ( 'international standard', 'config_control_design', 1994, #172 ) ;
#158 = DATE_TIME_ROLE ( 'creation_date' ) ;
#159 = ORIENTED_EDGE ( 'NONE', *, *, #190, .T. ) ;
#160 = LINE ( 'NONE', #220, #19 ) ;
#161 = CARTESIAN_POINT ( 'NONE',  ( -12.69999999999998900, 12.69999999999998900, 0.0000000000000000000 ) ) ;
#162 = APPLICATION_CONTEXT ( 'configuration controlled 3d designs of mechanical parts and assemblies' ) ;
#163 = CARTESIAN_POINT ( 'NONE',  ( -12.69999999999998900, -12.70000000000001700, 0.0000000000000000000 ) ) ;
#164 = EDGE_CURVE ( 'NONE', #176, #27, #201, .T. ) ;
#165 = CARTESIAN_POINT ( 'NONE',  ( -12.69999999999998900, 12.69999999999998900, 3.000000000000000000 ) ) ;
#166 = ORIENTED_EDGE ( 'NONE', *, *, #104, .T. ) ;
#167 = EDGE_CURVE ( 'NONE', #42, #27, #102, .T. ) ;
#168 = ADVANCED_FACE ( 'NONE', ( #236 ), #21, .F. ) ;
#169 = ORIENTED_EDGE ( 'NONE', *, *, #190, .F. ) ;
#170 = DIRECTION ( 'NONE',  ( -1.000000000000000000, -1.639108796198557500E-015, 0.0000000000000000000 ) ) ;
#171 = DATE_AND_TIME ( #224, #32 ) ;
#172 = APPLICATION_CONTEXT ( 'configuration controlled 3d designs of mechanical parts and assemblies' ) ;
#173 = APPROVAL_ROLE ( '' ) ;
#174 = EDGE_CURVE ( 'NONE', #80, #42, #7, .T. ) ;
#175 = EDGE_CURVE ( 'NONE', #43, #33, #186, .T. ) ;
#176 = VERTEX_POINT ( 'NONE', #227 ) ;
#177 = ADVANCED_FACE ( 'NONE', ( #233 ), #131, .T. ) ;
#178 = VERTEX_POINT ( 'NONE', #54 ) ;
#179 = PERSON_AND_ORGANIZATION ( #207, #55 ) ;
#180 = CARTESIAN_POINT ( 'NONE',  ( -12.69999999999998900, 12.69999999999998900, 3.000000000000000000 ) ) ;
#181 = ORIENTED_EDGE ( 'NONE', *, *, #174, .F. ) ;
#182 = CARTESIAN_POINT ( 'NONE',  ( -12.69999999999998900, 12.69999999999998900, 3.000000000000000000 ) ) ;
#183 = PRODUCT ( 'Web Model 46097_46097', 'Web Model 46097_46097', '', ( #194 ) ) ;
#184 = LOCAL_TIME ( 15, 50, 33.00000000000000000, #235 ) ;
#185 = ORIENTED_EDGE ( 'NONE', *, *, #174, .T. ) ;
#186 = LINE ( 'NONE', #97, #89 ) ;
#187 = UNCERTAINTY_MEASURE_WITH_UNIT (LENGTH_MEASURE( 1.000000000000000100E-005 ), #120, 'distance_accuracy_value', 'NONE');
#188 = ORIENTED_EDGE ( 'NONE', *, *, #150, .T. ) ;
#189 = ORIENTED_EDGE ( 'NONE', *, *, #164, .F. ) ;
#190 = EDGE_CURVE ( 'NONE', #81, #43, #40, .T. ) ;
#191 = DIRECTION ( 'NONE',  ( -0.0000000000000000000, -0.0000000000000000000, -1.000000000000000000 ) ) ;
#192 = CALENDAR_DATE ( 2017, 1, 3 ) ;
#193 = VECTOR ( 'NONE', #237, 1000.000000000000000 ) ;
#194 = MECHANICAL_CONTEXT ( 'NONE', #172, 'mechanical' ) ;
#195 = PERSON_AND_ORGANIZATION_ROLE ( 'design_supplier' ) ;
#196 = MANIFOLD_SOLID_BREP ( 'Boss-Extrude1', #73 ) ;
#197 = ADVANCED_FACE ( 'NONE', ( #36 ), #216, .F. ) ;
#198 = DATE_AND_TIME ( #10, #51 ) ;
#199 = ORIENTED_EDGE ( 'NONE', *, *, #175, .T. ) ;
#200 = CARTESIAN_POINT ( 'NONE',  ( -12.69999999999998900, -12.70000000000001700, 3.000000000000000000 ) ) ;
#201 = LINE ( 'NONE', #161, #193 ) ;
#202 = DIRECTION ( 'NONE',  ( -0.0000000000000000000, 1.000000000000000000, -0.0000000000000000000 ) ) ;
#203 = ADVANCED_FACE ( 'NONE', ( #130 ), #26, .F. ) ;
#204 = DIRECTION ( 'NONE',  ( 1.000000000000000000, -5.463695987328524500E-016, 0.0000000000000000000 ) ) ;
#205 = CARTESIAN_POINT ( 'NONE',  ( -12.69999999999998900, 12.69999999999998900, 0.0000000000000000000 ) ) ;
#206 = DATE_AND_TIME ( #15, #53 ) ;
#207 = PERSON ( 'UNSPECIFIED', 'UNSPECIFIED', 'UNSPECIFIED', ('UNSPECIFIED'), ('UNSPECIFIED'), ('UNSPECIFIED') ) ;
#208 = EDGE_CURVE ( 'NONE', #178, #33, #226, .T. ) ;
#209 = PERSON_AND_ORGANIZATION ( #207, #55 ) ;
#210 = AXIS2_PLACEMENT_3D ( 'NONE', #9, #155, #37 ) ;
#211 = PLANE ( 'NONE',  #219 ) ;
#212 = VECTOR ( 'NONE', #44, 1000.000000000000000 ) ;
#213 = DESIGN_CONTEXT ( 'detailed design', #162, 'design' ) ;
#214 = DIRECTION ( 'NONE',  ( -1.000000000000000000, 5.463695987328524500E-016, -0.0000000000000000000 ) ) ;
#215 = LINE ( 'NONE', #200, #113 ) ;
#216 = PLANE ( 'NONE',  #228 ) ;
#217 = CARTESIAN_POINT ( 'NONE',  ( 12.70000000000001700, -12.69999999999997400, 3.000000000000000000 ) ) ;
#218 = PERSON_AND_ORGANIZATION_ROLE ( 'classification_officer' ) ;
#219 = AXIS2_PLACEMENT_3D ( 'NONE', #165, #65, #140 ) ;
#220 = CARTESIAN_POINT ( 'NONE',  ( 12.70000000000001700, 12.69999999999997400, 0.0000000000000000000 ) ) ;
#221 = ORIENTED_EDGE ( 'NONE', *, *, #127, .F. ) ;
#222 = CARTESIAN_POINT ( 'NONE',  ( -12.69999999999998900, -12.70000000000001700, 3.000000000000000000 ) ) ;
#223 = ORIENTED_EDGE ( 'NONE', *, *, #138, .T. ) ;
#224 = CALENDAR_DATE ( 2017, 1, 3 ) ;
#225 = ORIENTED_EDGE ( 'NONE', *, *, #115, .F. ) ;
#226 = LINE ( 'NONE', #217, #78 ) ;
#227 = CARTESIAN_POINT ( 'NONE',  ( 12.70000000000001700, 12.69999999999997400, 0.0000000000000000000 ) ) ;
#228 = AXIS2_PLACEMENT_3D ( 'NONE', #100, #119, #11 ) ;
#229 = CARTESIAN_POINT ( 'NONE',  ( -12.69999999999998900, -12.70000000000001700, 3.000000000000000000 ) ) ;
#230 = ORIENTED_EDGE ( 'NONE', *, *, #152, .T. ) ;
#231 = PERSON_AND_ORGANIZATION ( #207, #55 ) ;
#232 = CARTESIAN_POINT ( 'NONE',  ( 0.0000000000000000000, 0.0000000000000000000, 0.0000000000000000000 ) ) ;
#233 = FACE_OUTER_BOUND ( 'NONE', #60, .T. ) ;
#234 = APPROVAL_STATUS ( 'not_yet_approved' ) ;
#235 = COORDINATED_UNIVERSAL_TIME_OFFSET ( 5, 0, .BEHIND. ) ;
#236 = FACE_OUTER_BOUND ( 'NONE', #146, .T. ) ;
#237 = DIRECTION ( 'NONE',  ( -1.000000000000000000, 5.463695987328524500E-016, -0.0000000000000000000 ) ) ;
ENDSEC;
END-ISO-10303-21;
