ISO-10303-21;
HEADER;
FILE_DESCRIPTION (( 'STEP AP203' ),
    '1' );
FILE_NAME ('Web Model 34427_13324.step',
    '2020-11-03T21:55:49',
    ( '' ),
    ( '' ),
    'SwSTEP 2.0',
    'SolidWorks 2018',
    '' );
FILE_SCHEMA (( 'CONFIG_CONTROL_DESIGN' ));
ENDSEC;

DATA;
#1 = VERTEX_POINT ( 'NONE', #110 ) ;
#2 = AXIS2_PLACEMENT_3D ( 'NONE', #115, #169, #116 ) ;
#3 = LOCAL_TIME ( 16, 55, 49.00000000000000000, #135 ) ;
#4 = VERTEX_POINT ( 'NONE', #123 ) ;
#5 = CARTESIAN_POINT ( 'NONE',  ( 25.00000000000000000, 3.061616997868383043E-15, 1.000000000000000000 ) ) ;
#6 = PERSON_AND_ORGANIZATION_ROLE ( 'design_supplier' ) ;
#7 = ORIENTED_EDGE ( 'NONE', *, *, #119, .T. ) ;
#8 = APPROVAL_ROLE ( '' ) ;
#9 = SECURITY_CLASSIFICATION ( '', '', #37 ) ;
#10 = AXIS2_PLACEMENT_3D ( 'NONE', #15, #50, #143 ) ;
#11 = PERSON_AND_ORGANIZATION ( #25, #22 ) ;
#12 = ORIENTED_EDGE ( 'NONE', *, *, #144, .F. ) ;
#13 = PERSON_AND_ORGANIZATION ( #25, #22 ) ;
#14 = CC_DESIGN_DATE_AND_TIME_ASSIGNMENT ( #157, #132, ( #9 ) ) ;
#15 = CARTESIAN_POINT ( 'NONE',  ( 0.0000000000000000000, 0.0000000000000000000, 1.000000000000000000 ) ) ;
#16 = AXIS2_PLACEMENT_3D ( 'NONE', #70, #49, #69 ) ;
#17 =( GEOMETRIC_REPRESENTATION_CONTEXT ( 3 ) GLOBAL_UNCERTAINTY_ASSIGNED_CONTEXT ( ( #124 ) ) GLOBAL_UNIT_ASSIGNED_CONTEXT ( ( #96, #51, #19 ) ) REPRESENTATION_CONTEXT ( 'NONE', 'WORKASPACE' ) );
#18 = LOCAL_TIME ( 16, 55, 49.00000000000000000, #68 ) ;
#19 =( NAMED_UNIT ( * ) SI_UNIT ( $, .STERADIAN. ) SOLID_ANGLE_UNIT ( ) );
#20 = VECTOR ( 'NONE', #38, 1000.000000000000000 ) ;
#21 = CARTESIAN_POINT ( 'NONE',  ( 25.00000000000000000, 3.061616997868383043E-15, 0.0000000000000000000 ) ) ;
#22 = ORGANIZATION ( 'UNSPECIFIED', 'UNSPECIFIED', '' ) ;
#23 = ORIENTED_EDGE ( 'NONE', *, *, #101, .F. ) ;
#24 = CC_DESIGN_PERSON_AND_ORGANIZATION_ASSIGNMENT ( #11, #6, ( #105 ) ) ;
#25 = PERSON ( 'UNSPECIFIED', 'UNSPECIFIED', 'UNSPECIFIED', ('UNSPECIFIED'), ('UNSPECIFIED'), ('UNSPECIFIED') ) ;
#26 = CALENDAR_DATE ( 2020, 3, 11 ) ;
#27 = CC_DESIGN_APPROVAL ( #151, ( #9 ) ) ;
#28 = PRODUCT ( 'Web Model 34427_13324', 'Web Model 34427_13324', '', ( #114 ) ) ;
#29 = AXIS2_PLACEMENT_3D ( 'NONE', #95, #94, #130 ) ;
#30 = CC_DESIGN_APPROVAL ( #150, ( #105 ) ) ;
#31 = CALENDAR_DATE ( 2020, 3, 11 ) ;
#32 = APPROVAL_PERSON_ORGANIZATION ( #163, #81, #142 ) ;
#33 = VERTEX_POINT ( 'NONE', #139 ) ;
#34 = PRODUCT_RELATED_PRODUCT_CATEGORY ( 'detail', '', ( #28 ) ) ;
#35 = LOCAL_TIME ( 16, 55, 49.00000000000000000, #172 ) ;
#36 = ADVANCED_FACE ( 'NONE', ( #55 ), #108, .F. ) ;
#37 = SECURITY_CLASSIFICATION_LEVEL ( 'unclassified' ) ;
#38 = DIRECTION ( 'NONE',  ( -0.0000000000000000000, -0.0000000000000000000, -1.000000000000000000 ) ) ;
#39 = DIRECTION ( 'NONE',  ( 1.000000000000000000, 0.0000000000000000000, 0.0000000000000000000 ) ) ;
#40 = PERSON_AND_ORGANIZATION_ROLE ( 'design_owner' ) ;
#41 = AXIS2_PLACEMENT_3D ( 'NONE', #131, #140, #112 ) ;
#42 = CC_DESIGN_PERSON_AND_ORGANIZATION_ASSIGNMENT ( #93, #40, ( #28 ) ) ;
#43 = CC_DESIGN_PERSON_AND_ORGANIZATION_ASSIGNMENT ( #65, #85, ( #75 ) ) ;
#44 = CIRCLE ( 'NONE', #48, 25.00000000000000000 ) ;
#45 = CIRCLE ( 'NONE', #41, 25.00000000000000000 ) ;
#46 = ADVANCED_FACE ( 'NONE', ( #79 ), #74, .T. ) ;
#47 = ORIENTED_EDGE ( 'NONE', *, *, #144, .T. ) ;
#48 = AXIS2_PLACEMENT_3D ( 'NONE', #155, #154, #71 ) ;
#49 = DIRECTION ( 'NONE',  ( 0.0000000000000000000, 0.0000000000000000000, 1.000000000000000000 ) ) ;
#50 = DIRECTION ( 'NONE',  ( 0.0000000000000000000, 0.0000000000000000000, 1.000000000000000000 ) ) ;
#51 =( NAMED_UNIT ( * ) PLANE_ANGLE_UNIT ( ) SI_UNIT ( $, .RADIAN. ) );
#52 = PERSON_AND_ORGANIZATION ( #25, #22 ) ;
#53 = APPLICATION_CONTEXT ( 'configuration controlled 3d designs of mechanical parts and assemblies' ) ;
#54 = APPROVAL_STATUS ( 'not_yet_approved' ) ;
#55 = FACE_OUTER_BOUND ( 'NONE', #126, .T. ) ;
#56 = CLOSED_SHELL ( 'NONE', ( #46, #160, #92, #36 ) ) ;
#57 = ADVANCED_BREP_SHAPE_REPRESENTATION ( 'Web Model 34427_13324', ( #82, #117 ), #17 ) ;
#58 = CYLINDRICAL_SURFACE ( 'NONE', #29, 25.00000000000000000 ) ;
#59 = VECTOR ( 'NONE', #83, 1000.000000000000000 ) ;
#60 = PERSON_AND_ORGANIZATION ( #25, #22 ) ;
#61 = DATE_TIME_ROLE ( 'creation_date' ) ;
#62 = APPROVAL_DATE_TIME ( #147, #151 ) ;
#63 = CC_DESIGN_DATE_AND_TIME_ASSIGNMENT ( #121, #61, ( #75 ) ) ;
#64 = LOCAL_TIME ( 16, 55, 49.00000000000000000, #98 ) ;
#65 = PERSON_AND_ORGANIZATION ( #25, #22 ) ;
#66 = DIRECTION ( 'NONE',  ( 1.000000000000000000, 0.0000000000000000000, -0.0000000000000000000 ) ) ;
#67 = DIRECTION ( 'NONE',  ( -1.000000000000000000, 0.0000000000000000000, 0.0000000000000000000 ) ) ;
#68 = COORDINATED_UNIVERSAL_TIME_OFFSET ( 5, 0, .BEHIND. ) ;
#69 = DIRECTION ( 'NONE',  ( 1.000000000000000000, 0.0000000000000000000, 0.0000000000000000000 ) ) ;
#70 = CARTESIAN_POINT ( 'NONE',  ( 0.0000000000000000000, 0.0000000000000000000, 1.000000000000000000 ) ) ;
#71 = DIRECTION ( 'NONE',  ( 1.000000000000000000, 0.0000000000000000000, 0.0000000000000000000 ) ) ;
#72 = DIRECTION ( 'NONE',  ( 0.0000000000000000000, 0.0000000000000000000, 1.000000000000000000 ) ) ;
#73 = ORIENTED_EDGE ( 'NONE', *, *, #119, .F. ) ;
#74 = CYLINDRICAL_SURFACE ( 'NONE', #76, 25.00000000000000000 ) ;
#75 = PRODUCT_DEFINITION ( 'UNKNOWN', '', #105, #109 ) ;
#76 = AXIS2_PLACEMENT_3D ( 'NONE', #149, #127, #67 ) ;
#77 = ORIENTED_EDGE ( 'NONE', *, *, #161, .T. ) ;
#78 = PLANE ( 'NONE',  #10 ) ;
#79 = FACE_OUTER_BOUND ( 'NONE', #91, .T. ) ;
#80 = DIRECTION ( 'NONE',  ( 0.0000000000000000000, 0.0000000000000000000, 1.000000000000000000 ) ) ;
#81 = APPROVAL ( #113, 'UNSPECIFIED' ) ;
#82 = MANIFOLD_SOLID_BREP ( 'Boss-Extrude1', #56 ) ;
#83 = DIRECTION ( 'NONE',  ( -0.0000000000000000000, -0.0000000000000000000, -1.000000000000000000 ) ) ;
#84 = CIRCLE ( 'NONE', #16, 25.00000000000000000 ) ;
#85 = PERSON_AND_ORGANIZATION_ROLE ( 'creator' ) ;
#86 = APPROVAL_ROLE ( '' ) ;
#87 = LOCAL_TIME ( 16, 55, 49.00000000000000000, #153 ) ;
#88 = CALENDAR_DATE ( 2020, 3, 11 ) ;
#89 = LINE ( 'NONE', #152, #20 ) ;
#90 = APPROVAL_DATE_TIME ( #137, #81 ) ;
#91 = EDGE_LOOP ( 'NONE', ( #73, #164, #107, #12 ) ) ;
#92 = ADVANCED_FACE ( 'NONE', ( #120 ), #78, .T. ) ;
#93 = PERSON_AND_ORGANIZATION ( #25, #22 ) ;
#94 = DIRECTION ( 'NONE',  ( -0.0000000000000000000, -0.0000000000000000000, -1.000000000000000000 ) ) ;
#95 = CARTESIAN_POINT ( 'NONE',  ( 0.0000000000000000000, 0.0000000000000000000, 1.000000000000000000 ) ) ;
#96 =( LENGTH_UNIT ( ) NAMED_UNIT ( * ) SI_UNIT ( .MILLI., .METRE. ) );
#97 = PERSON_AND_ORGANIZATION_ROLE ( 'creator' ) ;
#98 = COORDINATED_UNIVERSAL_TIME_OFFSET ( 5, 0, .BEHIND. ) ;
#99 = ORIENTED_EDGE ( 'NONE', *, *, #173, .T. ) ;
#100 = CC_DESIGN_PERSON_AND_ORGANIZATION_ASSIGNMENT ( #13, #128, ( #9 ) ) ;
#101 = EDGE_CURVE ( 'NONE', #4, #111, #146, .T. ) ;
#102 = CC_DESIGN_APPROVAL ( #81, ( #75 ) ) ;
#103 = CIRCLE ( 'NONE', #2, 25.00000000000000000 ) ;
#104 = CALENDAR_DATE ( 2020, 3, 11 ) ;
#105 = PRODUCT_DEFINITION_FORMATION_WITH_SPECIFIED_SOURCE ( 'ANY', '', #28, .NOT_KNOWN. ) ;
#106 = PERSON_AND_ORGANIZATION ( #25, #22 ) ;
#107 = ORIENTED_EDGE ( 'NONE', *, *, #170, .T. ) ;
#108 = PLANE ( 'NONE',  #165 ) ;
#109 = DESIGN_CONTEXT ( 'detailed design', #141, 'design' ) ;
#110 = CARTESIAN_POINT ( 'NONE',  ( -25.00000000000000000, 0.0000000000000000000, 1.000000000000000000 ) ) ;
#111 = VERTEX_POINT ( 'NONE', #21 ) ;
#112 = DIRECTION ( 'NONE',  ( 1.000000000000000000, 0.0000000000000000000, 0.0000000000000000000 ) ) ;
#113 = APPROVAL_STATUS ( 'not_yet_approved' ) ;
#114 = MECHANICAL_CONTEXT ( 'NONE', #53, 'mechanical' ) ;
#115 = CARTESIAN_POINT ( 'NONE',  ( 0.0000000000000000000, 0.0000000000000000000, 0.0000000000000000000 ) ) ;
#116 = DIRECTION ( 'NONE',  ( 1.000000000000000000, 0.0000000000000000000, 0.0000000000000000000 ) ) ;
#117 = AXIS2_PLACEMENT_3D ( 'NONE', #167, #72, #39 ) ;
#118 = CALENDAR_DATE ( 2020, 3, 11 ) ;
#119 = EDGE_CURVE ( 'NONE', #4, #1, #44, .T. ) ;
#120 = FACE_OUTER_BOUND ( 'NONE', #156, .T. ) ;
#121 = DATE_AND_TIME ( #88, #35 ) ;
#122 = PRODUCT_DEFINITION_SHAPE ( 'NONE', 'NONE',  #75 ) ;
#123 = CARTESIAN_POINT ( 'NONE',  ( 25.00000000000000000, 3.061616997868383043E-15, 1.000000000000000000 ) ) ;
#124 = UNCERTAINTY_MEASURE_WITH_UNIT (LENGTH_MEASURE( 1.000000000000000082E-05 ), #96, 'distance_accuracy_value', 'NONE');
#125 = APPROVAL_PERSON_ORGANIZATION ( #106, #151, #86 ) ;
#126 = EDGE_LOOP ( 'NONE', ( #175, #138 ) ) ;
#127 = DIRECTION ( 'NONE',  ( -0.0000000000000000000, -0.0000000000000000000, -1.000000000000000000 ) ) ;
#128 = PERSON_AND_ORGANIZATION_ROLE ( 'classification_officer' ) ;
#129 = CC_DESIGN_PERSON_AND_ORGANIZATION_ASSIGNMENT ( #60, #97, ( #105 ) ) ;
#130 = DIRECTION ( 'NONE',  ( -1.000000000000000000, 0.0000000000000000000, 0.0000000000000000000 ) ) ;
#131 = CARTESIAN_POINT ( 'NONE',  ( 0.0000000000000000000, 0.0000000000000000000, 0.0000000000000000000 ) ) ;
#132 = DATE_TIME_ROLE ( 'classification_date' ) ;
#133 = EDGE_LOOP ( 'NONE', ( #23, #158, #47, #77 ) ) ;
#134 = APPROVAL_DATE_TIME ( #168, #150 ) ;
#135 = COORDINATED_UNIVERSAL_TIME_OFFSET ( 5, 0, .BEHIND. ) ;
#136 = APPROVAL_PERSON_ORGANIZATION ( #52, #150, #8 ) ;
#137 = DATE_AND_TIME ( #118, #18 ) ;
#138 = ORIENTED_EDGE ( 'NONE', *, *, #170, .F. ) ;
#139 = CARTESIAN_POINT ( 'NONE',  ( -25.00000000000000000, 0.0000000000000000000, 0.0000000000000000000 ) ) ;
#140 = DIRECTION ( 'NONE',  ( 0.0000000000000000000, 0.0000000000000000000, 1.000000000000000000 ) ) ;
#141 = APPLICATION_CONTEXT ( 'configuration controlled 3d designs of mechanical parts and assemblies' ) ;
#142 = APPROVAL_ROLE ( '' ) ;
#143 = DIRECTION ( 'NONE',  ( 1.000000000000000000, 0.0000000000000000000, -0.0000000000000000000 ) ) ;
#144 = EDGE_CURVE ( 'NONE', #1, #33, #89, .T. ) ;
#145 = APPLICATION_PROTOCOL_DEFINITION ( 'international standard', 'config_control_design', 1994, #141 ) ;
#146 = LINE ( 'NONE', #5, #59 ) ;
#147 = DATE_AND_TIME ( #26, #87 ) ;
#148 = FACE_OUTER_BOUND ( 'NONE', #133, .T. ) ;
#149 = CARTESIAN_POINT ( 'NONE',  ( 0.0000000000000000000, 0.0000000000000000000, 1.000000000000000000 ) ) ;
#150 = APPROVAL ( #171, 'UNSPECIFIED' ) ;
#151 = APPROVAL ( #54, 'UNSPECIFIED' ) ;
#152 = CARTESIAN_POINT ( 'NONE',  ( -25.00000000000000000, 0.0000000000000000000, 1.000000000000000000 ) ) ;
#153 = COORDINATED_UNIVERSAL_TIME_OFFSET ( 5, 0, .BEHIND. ) ;
#154 = DIRECTION ( 'NONE',  ( 0.0000000000000000000, 0.0000000000000000000, 1.000000000000000000 ) ) ;
#155 = CARTESIAN_POINT ( 'NONE',  ( 0.0000000000000000000, 0.0000000000000000000, 1.000000000000000000 ) ) ;
#156 = EDGE_LOOP ( 'NONE', ( #99, #7 ) ) ;
#157 = DATE_AND_TIME ( #104, #3 ) ;
#158 = ORIENTED_EDGE ( 'NONE', *, *, #173, .F. ) ;
#159 = CC_DESIGN_SECURITY_CLASSIFICATION ( #9, ( #105 ) ) ;
#160 = ADVANCED_FACE ( 'NONE', ( #148 ), #58, .T. ) ;
#161 = EDGE_CURVE ( 'NONE', #33, #111, #45, .T. ) ;
#162 = SHAPE_DEFINITION_REPRESENTATION ( #122, #57 ) ;
#163 = PERSON_AND_ORGANIZATION ( #25, #22 ) ;
#164 = ORIENTED_EDGE ( 'NONE', *, *, #101, .T. ) ;
#165 = AXIS2_PLACEMENT_3D ( 'NONE', #166, #80, #66 ) ;
#166 = CARTESIAN_POINT ( 'NONE',  ( 0.0000000000000000000, 0.0000000000000000000, 0.0000000000000000000 ) ) ;
#167 = CARTESIAN_POINT ( 'NONE',  ( 0.0000000000000000000, 0.0000000000000000000, 0.0000000000000000000 ) ) ;
#168 = DATE_AND_TIME ( #31, #64 ) ;
#169 = DIRECTION ( 'NONE',  ( 0.0000000000000000000, 0.0000000000000000000, 1.000000000000000000 ) ) ;
#170 = EDGE_CURVE ( 'NONE', #111, #33, #103, .T. ) ;
#171 = APPROVAL_STATUS ( 'not_yet_approved' ) ;
#172 = COORDINATED_UNIVERSAL_TIME_OFFSET ( 5, 0, .BEHIND. ) ;
#173 = EDGE_CURVE ( 'NONE', #1, #4, #84, .T. ) ;
#174 = APPLICATION_PROTOCOL_DEFINITION ( 'international standard', 'config_control_design', 1994, #53 ) ;
#175 = ORIENTED_EDGE ( 'NONE', *, *, #161, .F. ) ;
ENDSEC;
END-ISO-10303-21;
