ISO-10303-21;
HEADER;
FILE_DESCRIPTION (( 'STEP AP214' ),
    '1' );
FILE_NAME ('CTN002724.STEP',
    '2016-10-11T02:28:14',
    ( '' ),
    ( '' ),
    'SwSTEP 2.0',
    'SolidWorks 2016',
    '' );
FILE_SCHEMA (( 'AUTOMOTIVE_DESIGN' ));
ENDSEC;

DATA;
#1 = PRODUCT_DEFINITION ( 'UNKNOWN', '', #18, #235 ) ;
#2 =( NAMED_UNIT ( * ) SI_UNIT ( $, .STERADIAN. ) SOLID_ANGLE_UNIT ( ) );
#3 = ORIENTED_EDGE ( 'NONE', *, *, #134, .T. ) ;
#4 = FILL_AREA_STYLE ('',( #274 ) ) ;
#5 = APPLICATION_PROTOCOL_DEFINITION ( 'draft international standard', 'automotive_design', 1998, #175 ) ;
#6 = COLOUR_RGB ( '',1.000000000000000000, 1.000000000000000000, 1.000000000000000000 ) ;
#7 =( GEOMETRIC_REPRESENTATION_CONTEXT ( 3 ) GLOBAL_UNCERTAINTY_ASSIGNED_CONTEXT ( ( #144 ) ) GLOBAL_UNIT_ASSIGNED_CONTEXT ( ( #29, #218, #2 ) ) REPRESENTATION_CONTEXT ( 'NONE', 'WORKASPACE' ) );
#8 =( LENGTH_UNIT ( ) NAMED_UNIT ( * ) SI_UNIT ( .MILLI., .METRE. ) );
#9 = DIRECTION ( 'NONE',  ( 1.734723475976807100E-016, 0.0000000000000000000, 1.000000000000000000 ) ) ;
#10 = DIRECTION ( 'NONE',  ( -1.000000000000000000, -0.0000000000000000000, 8.673617379884036700E-017 ) ) ;
#11 = PLANE ( 'NONE',  #79 ) ;
#12 = PLANE ( 'NONE',  #246 ) ;
#13 = EDGE_CURVE ( 'NONE', #179, #28, #193, .T. ) ;
#14 = DIRECTION ( 'NONE',  ( 1.000000000000000000, 0.0000000000000000000, -1.734723475976807100E-016 ) ) ;
#15 = DIRECTION ( 'NONE',  ( -0.0000000000000000000, -1.000000000000000000, -0.0000000000000000000 ) ) ;
#16 = EDGE_CURVE ( 'NONE', #47, #68, #195, .T. ) ;
#17 = AXIS2_PLACEMENT_3D ( 'NONE', #82, #277, #127 ) ;
#18 = PRODUCT_DEFINITION_FORMATION_WITH_SPECIFIED_SOURCE ( 'ANY', '', #197, .NOT_KNOWN. ) ;
#19 = PRESENTATION_LAYER_ASSIGNMENT (  '', '', ( #148 ) ) ;
#20 = CARTESIAN_POINT ( 'NONE',  ( -4.999999999999999100, 0.0000000000000000000, -4.999999999999999100 ) ) ;
#21 = PLANE ( 'NONE',  #17 ) ;
#22 = CLOSED_SHELL ( 'NONE', ( #49, #250, #247, #290, #208, #164 ) ) ;
#23 = VECTOR ( 'NONE', #160, 1000.000000000000000 ) ;
#24 = UNCERTAINTY_MEASURE_WITH_UNIT (LENGTH_MEASURE( 1.000000000000000100E-005 ), #203, 'distance_accuracy_value', 'NONE');
#25 = SHAPE_DEFINITION_REPRESENTATION ( #132, #92 ) ;
#26 = AXIS2_PLACEMENT_3D ( 'NONE', #44, #275, #262 ) ;
#27 = COLOUR_RGB ( '',1.000000000000000000, 0.5019607843137254800, 0.5019607843137254800 ) ;
#28 = VERTEX_POINT ( 'NONE', #192 ) ;
#29 =( LENGTH_UNIT ( ) NAMED_UNIT ( * ) SI_UNIT ( .MILLI., .METRE. ) );
#30 = STYLED_ITEM ( 'NONE', ( #206 ), #164 ) ;
#31 = LINE ( 'NONE', #126, #120 ) ;
#32 = PRODUCT_CONTEXT ( 'NONE', #151, 'mechanical' ) ;
#33 = EDGE_CURVE ( 'NONE', #68, #179, #94, .T. ) ;
#34 = LINE ( 'NONE', #63, #255 ) ;
#35 =( NAMED_UNIT ( * ) SI_UNIT ( $, .STERADIAN. ) SOLID_ANGLE_UNIT ( ) );
#36 = MECHANICAL_DESIGN_GEOMETRIC_PRESENTATION_REPRESENTATION (  '', ( #78 ), #53 ) ;
#37 = COLOUR_RGB ( '',1.000000000000000000, 1.000000000000000000, 1.000000000000000000 ) ;
#38 = MECHANICAL_DESIGN_GEOMETRIC_PRESENTATION_REPRESENTATION (  '', ( #230 ), #54 ) ;
#39 = CARTESIAN_POINT ( 'NONE',  ( 4.999999999999999100, 0.4000000000000000200, -5.000000000000000000 ) ) ;
#40 = DIRECTION ( 'NONE',  ( 1.734723475976807100E-016, 0.0000000000000000000, 1.000000000000000000 ) ) ;
#41 = FILL_AREA_STYLE_COLOUR ( '', #37 ) ;
#42 = FILL_AREA_STYLE ('',( #41 ) ) ;
#43 = FILL_AREA_STYLE ('',( #244 ) ) ;
#44 = CARTESIAN_POINT ( 'NONE',  ( 0.0000000000000000000, 0.0000000000000000000, 0.0000000000000000000 ) ) ;
#45 = CARTESIAN_POINT ( 'NONE',  ( -4.999999999999997300, 0.4000000000000000200, 5.000000000000000900 ) ) ;
#46 = SURFACE_SIDE_STYLE ('',( #75 ) ) ;
#47 = VERTEX_POINT ( 'NONE', #283 ) ;
#48 = AXIS2_PLACEMENT_3D ( 'NONE', #259, #117, #252 ) ;
#49 = ADVANCED_FACE ( 'NONE', ( #149 ), #234, .F. ) ;
#50 = DIRECTION ( 'NONE',  ( -1.000000000000000000, -0.0000000000000000000, 8.673617379884036700E-017 ) ) ;
#51 = LINE ( 'NONE', #260, #292 ) ;
#52 =( GEOMETRIC_REPRESENTATION_CONTEXT ( 3 ) GLOBAL_UNCERTAINTY_ASSIGNED_CONTEXT ( ( #24 ) ) GLOBAL_UNIT_ASSIGNED_CONTEXT ( ( #203, #257, #101 ) ) REPRESENTATION_CONTEXT ( 'NONE', 'WORKASPACE' ) );
#53 =( GEOMETRIC_REPRESENTATION_CONTEXT ( 3 ) GLOBAL_UNCERTAINTY_ASSIGNED_CONTEXT ( ( #291 ) ) GLOBAL_UNIT_ASSIGNED_CONTEXT ( ( #8, #177, #35 ) ) REPRESENTATION_CONTEXT ( 'NONE', 'WORKASPACE' ) );
#54 =( GEOMETRIC_REPRESENTATION_CONTEXT ( 3 ) GLOBAL_UNCERTAINTY_ASSIGNED_CONTEXT ( ( #242 ) ) GLOBAL_UNIT_ASSIGNED_CONTEXT ( ( #80, #216, #81 ) ) REPRESENTATION_CONTEXT ( 'NONE', 'WORKASPACE' ) );
#55 = ORIENTED_EDGE ( 'NONE', *, *, #33, .T. ) ;
#56 = ORIENTED_EDGE ( 'NONE', *, *, #33, .F. ) ;
#57 = UNCERTAINTY_MEASURE_WITH_UNIT (LENGTH_MEASURE( 1.000000000000000100E-005 ), #105, 'distance_accuracy_value', 'NONE');
#58 = VECTOR ( 'NONE', #112, 1000.000000000000000 ) ;
#59 = ORIENTED_EDGE ( 'NONE', *, *, #263, .F. ) ;
#60 = DIRECTION ( 'NONE',  ( 0.0000000000000000000, 0.0000000000000000000, 1.000000000000000000 ) ) ;
#61 = ORIENTED_EDGE ( 'NONE', *, *, #240, .T. ) ;
#62 = FILL_AREA_STYLE ('',( #87 ) ) ;
#63 = CARTESIAN_POINT ( 'NONE',  ( 4.999999999999999100, 0.4000000000000000200, 5.000000000000000000 ) ) ;
#64 = SURFACE_SIDE_STYLE ('',( #166 ) ) ;
#65 = DIRECTION ( 'NONE',  ( -0.0000000000000000000, 1.000000000000000000, 0.0000000000000000000 ) ) ;
#66 = VERTEX_POINT ( 'NONE', #239 ) ;
#67 = EDGE_CURVE ( 'NONE', #91, #28, #248, .T. ) ;
#68 = VERTEX_POINT ( 'NONE', #258 ) ;
#69 = CARTESIAN_POINT ( 'NONE',  ( 4.999999999999999100, 0.0000000000000000000, 5.000000000000000000 ) ) ;
#70 = SURFACE_STYLE_USAGE ( .BOTH. , #222 ) ;
#71 =( NAMED_UNIT ( * ) PLANE_ANGLE_UNIT ( ) SI_UNIT ( $, .RADIAN. ) );
#72 = UNCERTAINTY_MEASURE_WITH_UNIT (LENGTH_MEASURE( 1.000000000000000100E-005 ), #137, 'distance_accuracy_value', 'NONE');
#73 = FILL_AREA_STYLE_COLOUR ( '', #27 ) ;
#74 = FACE_OUTER_BOUND ( 'NONE', #228, .T. ) ;
#75 = SURFACE_STYLE_FILL_AREA ( #152 ) ;
#76 =( GEOMETRIC_REPRESENTATION_CONTEXT ( 3 ) GLOBAL_UNCERTAINTY_ASSIGNED_CONTEXT ( ( #88 ) ) GLOBAL_UNIT_ASSIGNED_CONTEXT ( ( #89, #128, #77 ) ) REPRESENTATION_CONTEXT ( 'NONE', 'WORKASPACE' ) );
#77 =( NAMED_UNIT ( * ) SI_UNIT ( $, .STERADIAN. ) SOLID_ANGLE_UNIT ( ) );
#78 = STYLED_ITEM ( 'NONE', ( #251 ), #92 ) ;
#79 = AXIS2_PLACEMENT_3D ( 'NONE', #156, #65, #243 ) ;
#80 =( LENGTH_UNIT ( ) NAMED_UNIT ( * ) SI_UNIT ( .MILLI., .METRE. ) );
#81 =( NAMED_UNIT ( * ) SI_UNIT ( $, .STERADIAN. ) SOLID_ANGLE_UNIT ( ) );
#82 = CARTESIAN_POINT ( 'NONE',  ( -4.999999999999999100, 0.4000000000000000200, -4.999999999999999100 ) ) ;
#83 = COLOUR_RGB ( '',1.000000000000000000, 0.5019607843137254800, 0.5019607843137254800 ) ;
#84 = ORIENTED_EDGE ( 'NONE', *, *, #67, .T. ) ;
#85 =( NAMED_UNIT ( * ) PLANE_ANGLE_UNIT ( ) SI_UNIT ( $, .RADIAN. ) );
#86 = EDGE_LOOP ( 'NONE', ( #55, #150, #59, #253 ) ) ;
#87 = FILL_AREA_STYLE_COLOUR ( '', #266 ) ;
#88 = UNCERTAINTY_MEASURE_WITH_UNIT (LENGTH_MEASURE( 1.000000000000000100E-005 ), #89, 'distance_accuracy_value', 'NONE');
#89 =( LENGTH_UNIT ( ) NAMED_UNIT ( * ) SI_UNIT ( .MILLI., .METRE. ) );
#90 =( NAMED_UNIT ( * ) PLANE_ANGLE_UNIT ( ) SI_UNIT ( $, .RADIAN. ) );
#91 = VERTEX_POINT ( 'NONE', #133 ) ;
#92 = ADVANCED_BREP_SHAPE_REPRESENTATION ( 'CTN002724', ( #108, #48 ), #122 ) ;
#93 = MECHANICAL_DESIGN_GEOMETRIC_PRESENTATION_REPRESENTATION (  '', ( #181 ), #76 ) ;
#94 = LINE ( 'NONE', #187, #23 ) ;
#95 = FACE_OUTER_BOUND ( 'NONE', #86, .T. ) ;
#96 =( LENGTH_UNIT ( ) NAMED_UNIT ( * ) SI_UNIT ( .MILLI., .METRE. ) );
#97 = UNCERTAINTY_MEASURE_WITH_UNIT (LENGTH_MEASURE( 1.000000000000000100E-005 ), #96, 'distance_accuracy_value', 'NONE');
#98 = PRESENTATION_LAYER_ASSIGNMENT (  '', '', ( #202 ) ) ;
#99 = FILL_AREA_STYLE ('',( #207 ) ) ;
#100 = MECHANICAL_DESIGN_GEOMETRIC_PRESENTATION_REPRESENTATION (  '', ( #148 ), #174 ) ;
#101 =( NAMED_UNIT ( * ) SI_UNIT ( $, .STERADIAN. ) SOLID_ANGLE_UNIT ( ) );
#102 = ORIENTED_EDGE ( 'NONE', *, *, #254, .F. ) ;
#103 = VERTEX_POINT ( 'NONE', #281 ) ;
#104 =( NAMED_UNIT ( * ) SI_UNIT ( $, .STERADIAN. ) SOLID_ANGLE_UNIT ( ) );
#105 =( LENGTH_UNIT ( ) NAMED_UNIT ( * ) SI_UNIT ( .MILLI., .METRE. ) );
#106 = PRESENTATION_LAYER_ASSIGNMENT (  '', '', ( #181 ) ) ;
#107 = DIRECTION ( 'NONE',  ( -1.734723475976807100E-016, 0.0000000000000000000, -1.000000000000000000 ) ) ;
#108 = MANIFOLD_SOLID_BREP ( 'Boss-Extrude1', #22 ) ;
#109 = DIRECTION ( 'NONE',  ( -0.0000000000000000000, -1.000000000000000000, -0.0000000000000000000 ) ) ;
#110 =( GEOMETRIC_REPRESENTATION_CONTEXT ( 3 ) GLOBAL_UNCERTAINTY_ASSIGNED_CONTEXT ( ( #72 ) ) GLOBAL_UNIT_ASSIGNED_CONTEXT ( ( #137, #90, #104 ) ) REPRESENTATION_CONTEXT ( 'NONE', 'WORKASPACE' ) );
#111 = CARTESIAN_POINT ( 'NONE',  ( -4.999999999999999100, 0.4000000000000000200, -4.999999999999999100 ) ) ;
#112 = DIRECTION ( 'NONE',  ( -0.0000000000000000000, -1.000000000000000000, -0.0000000000000000000 ) ) ;
#113 = EDGE_CURVE ( 'NONE', #116, #68, #189, .T. ) ;
#114 = ORIENTED_EDGE ( 'NONE', *, *, #113, .F. ) ;
#115 = EDGE_CURVE ( 'NONE', #66, #116, #213, .T. ) ;
#116 = VERTEX_POINT ( 'NONE', #168 ) ;
#117 = DIRECTION ( 'NONE',  ( 0.0000000000000000000, 0.0000000000000000000, 1.000000000000000000 ) ) ;
#118 = SURFACE_STYLE_USAGE ( .BOTH. , #270 ) ;
#119 = MECHANICAL_DESIGN_GEOMETRIC_PRESENTATION_REPRESENTATION (  '', ( #191 ), #110 ) ;
#120 = VECTOR ( 'NONE', #50, 1000.000000000000000 ) ;
#121 = SURFACE_STYLE_USAGE ( .BOTH. , #256 ) ;
#122 =( GEOMETRIC_REPRESENTATION_CONTEXT ( 3 ) GLOBAL_UNCERTAINTY_ASSIGNED_CONTEXT ( ( #97 ) ) GLOBAL_UNIT_ASSIGNED_CONTEXT ( ( #96, #231, #171 ) ) REPRESENTATION_CONTEXT ( 'NONE', 'WORKASPACE' ) );
#123 = ORIENTED_EDGE ( 'NONE', *, *, #269, .F. ) ;
#124 = FACE_OUTER_BOUND ( 'NONE', #180, .T. ) ;
#125 = PRODUCT_RELATED_PRODUCT_CATEGORY ( 'part', '', ( #197 ) ) ;
#126 = CARTESIAN_POINT ( 'NONE',  ( -4.999999999999999100, 0.0000000000000000000, -4.999999999999999100 ) ) ;
#127 = DIRECTION ( 'NONE',  ( 1.000000000000000000, 0.0000000000000000000, -8.673617379884036700E-017 ) ) ;
#128 =( NAMED_UNIT ( * ) PLANE_ANGLE_UNIT ( ) SI_UNIT ( $, .RADIAN. ) );
#129 = ORIENTED_EDGE ( 'NONE', *, *, #263, .T. ) ;
#130 = DIRECTION ( 'NONE',  ( -1.000000000000000000, 0.0000000000000000000, 8.673617379884039200E-017 ) ) ;
#131 = SURFACE_SIDE_STYLE ('',( #140 ) ) ;
#132 = PRODUCT_DEFINITION_SHAPE ( 'NONE', 'NONE',  #1 ) ;
#133 = CARTESIAN_POINT ( 'NONE',  ( 4.999999999999999100, 0.4000000000000000200, -5.000000000000000000 ) ) ;
#134 = EDGE_CURVE ( 'NONE', #103, #179, #34, .T. ) ;
#135 = COLOUR_RGB ( '',1.000000000000000000, 1.000000000000000000, 1.000000000000000000 ) ;
#136 = CARTESIAN_POINT ( 'NONE',  ( -4.999999999999999100, 0.4000000000000000200, -4.999999999999999100 ) ) ;
#137 =( LENGTH_UNIT ( ) NAMED_UNIT ( * ) SI_UNIT ( .MILLI., .METRE. ) );
#138 = AXIS2_PLACEMENT_3D ( 'NONE', #198, #271, #130 ) ;
#139 = DIRECTION ( 'NONE',  ( -0.0000000000000000000, -0.0000000000000000000, -1.000000000000000000 ) ) ;
#140 = SURFACE_STYLE_FILL_AREA ( #62 ) ;
#141 = PRESENTATION_LAYER_ASSIGNMENT (  '', '', ( #78 ) ) ;
#142 = LINE ( 'NONE', #162, #272 ) ;
#143 = PRESENTATION_LAYER_ASSIGNMENT (  '', '', ( #194 ) ) ;
#144 = UNCERTAINTY_MEASURE_WITH_UNIT (LENGTH_MEASURE( 1.000000000000000100E-005 ), #29, 'distance_accuracy_value', 'NONE');
#145 = PRESENTATION_STYLE_ASSIGNMENT (( #70 ) ) ;
#146 = APPLICATION_PROTOCOL_DEFINITION ( 'draft international standard', 'automotive_design', 1998, #151 ) ;
#147 = COLOUR_RGB ( '',1.000000000000000000, 1.000000000000000000, 1.000000000000000000 ) ;
#148 = STYLED_ITEM ( 'NONE', ( #288 ), #49 ) ;
#149 = FACE_OUTER_BOUND ( 'NONE', #284, .T. ) ;
#150 = ORIENTED_EDGE ( 'NONE', *, *, #134, .F. ) ;
#151 = APPLICATION_CONTEXT ( 'automotive_design' ) ;
#152 = FILL_AREA_STYLE ('',( #261 ) ) ;
#153 = DIRECTION ( 'NONE',  ( 1.000000000000000000, 0.0000000000000000000, -8.673617379884037900E-017 ) ) ;
#154 = ORIENTED_EDGE ( 'NONE', *, *, #16, .T. ) ;
#155 = PRESENTATION_LAYER_ASSIGNMENT (  '', '', ( #191 ) ) ;
#156 = CARTESIAN_POINT ( 'NONE',  ( 0.0000000000000000000, 0.4000000000000000200, 0.0000000000000000000 ) ) ;
#157 = PLANE ( 'NONE',  #26 ) ;
#158 = ORIENTED_EDGE ( 'NONE', *, *, #269, .T. ) ;
#159 = ORIENTED_EDGE ( 'NONE', *, *, #221, .F. ) ;
#160 = DIRECTION ( 'NONE',  ( 1.000000000000000000, 0.0000000000000000000, -8.673617379884037900E-017 ) ) ;
#161 = VECTOR ( 'NONE', #153, 1000.000000000000000 ) ;
#162 = CARTESIAN_POINT ( 'NONE',  ( 4.999999999999999100, 0.4000000000000000200, -5.000000000000000000 ) ) ;
#163 = MECHANICAL_DESIGN_GEOMETRIC_PRESENTATION_REPRESENTATION (  '', ( #194 ), #52 ) ;
#164 = ADVANCED_FACE ( 'NONE', ( #204 ), #157, .F. ) ;
#165 = SURFACE_STYLE_USAGE ( .BOTH. , #183 ) ;
#166 = SURFACE_STYLE_FILL_AREA ( #217 ) ;
#167 = SURFACE_STYLE_FILL_AREA ( #185 ) ;
#168 = CARTESIAN_POINT ( 'NONE',  ( -4.999999999999997300, 0.4000000000000000200, 5.000000000000000900 ) ) ;
#169 = ORIENTED_EDGE ( 'NONE', *, *, #115, .F. ) ;
#170 = ORIENTED_EDGE ( 'NONE', *, *, #67, .F. ) ;
#171 =( NAMED_UNIT ( * ) SI_UNIT ( $, .STERADIAN. ) SOLID_ANGLE_UNIT ( ) );
#172 = PRESENTATION_STYLE_ASSIGNMENT (( #165 ) ) ;
#173 = VECTOR ( 'NONE', #219, 1000.000000000000000 ) ;
#174 =( GEOMETRIC_REPRESENTATION_CONTEXT ( 3 ) GLOBAL_UNCERTAINTY_ASSIGNED_CONTEXT ( ( #176 ) ) GLOBAL_UNIT_ASSIGNED_CONTEXT ( ( #280, #85, #233 ) ) REPRESENTATION_CONTEXT ( 'NONE', 'WORKASPACE' ) );
#175 = APPLICATION_CONTEXT ( 'automotive_design' ) ;
#176 = UNCERTAINTY_MEASURE_WITH_UNIT (LENGTH_MEASURE( 1.000000000000000100E-005 ), #280, 'distance_accuracy_value', 'NONE');
#177 =( NAMED_UNIT ( * ) PLANE_ANGLE_UNIT ( ) SI_UNIT ( $, .RADIAN. ) );
#178 = DIRECTION ( 'NONE',  ( -1.000000000000000000, 0.0000000000000000000, 0.0000000000000000000 ) ) ;
#179 = VERTEX_POINT ( 'NONE', #69 ) ;
#180 = EDGE_LOOP ( 'NONE', ( #229, #129, #190, #196 ) ) ;
#181 = STYLED_ITEM ( 'NONE', ( #241 ), #247 ) ;
#182 = SURFACE_STYLE_USAGE ( .BOTH. , #46 ) ;
#183 = SURFACE_SIDE_STYLE ('',( #215 ) ) ;
#184 = CARTESIAN_POINT ( 'NONE',  ( 4.999999999999999100, 0.4000000000000000200, -5.000000000000000000 ) ) ;
#185 = FILL_AREA_STYLE ('',( #73 ) ) ;
#186 = COLOUR_RGB ( '',1.000000000000000000, 1.000000000000000000, 1.000000000000000000 ) ;
#187 = CARTESIAN_POINT ( 'NONE',  ( -4.999999999999997300, 0.0000000000000000000, 5.000000000000000900 ) ) ;
#188 = ORIENTED_EDGE ( 'NONE', *, *, #240, .F. ) ;
#189 = LINE ( 'NONE', #45, #173 ) ;
#190 = ORIENTED_EDGE ( 'NONE', *, *, #221, .T. ) ;
#191 = STYLED_ITEM ( 'NONE', ( #172 ), #290 ) ;
#192 = CARTESIAN_POINT ( 'NONE',  ( 4.999999999999999100, 0.0000000000000000000, -5.000000000000000000 ) ) ;
#193 = LINE ( 'NONE', #199, #227 ) ;
#194 = STYLED_ITEM ( 'NONE', ( #145 ), #208 ) ;
#195 = LINE ( 'NONE', #20, #201 ) ;
#196 = ORIENTED_EDGE ( 'NONE', *, *, #254, .T. ) ;
#197 = PRODUCT ( 'CTN002724', 'CTN002724', '', ( #32 ) ) ;
#198 = CARTESIAN_POINT ( 'NONE',  ( -4.999999999999997300, 0.4000000000000000200, 5.000000000000000900 ) ) ;
#199 = CARTESIAN_POINT ( 'NONE',  ( 4.999999999999999100, 0.0000000000000000000, -5.000000000000000000 ) ) ;
#200 = SURFACE_STYLE_USAGE ( .BOTH. , #64 ) ;
#201 = VECTOR ( 'NONE', #9, 1000.000000000000000 ) ;
#202 = STYLED_ITEM ( 'NONE', ( #276 ), #108 ) ;
#203 =( LENGTH_UNIT ( ) NAMED_UNIT ( * ) SI_UNIT ( .MILLI., .METRE. ) );
#204 = FACE_OUTER_BOUND ( 'NONE', #267, .T. ) ;
#205 = SURFACE_STYLE_USAGE ( .BOTH. , #223 ) ;
#206 = PRESENTATION_STYLE_ASSIGNMENT (( #265 ) ) ;
#207 = FILL_AREA_STYLE_COLOUR ( '', #6 ) ;
#208 = ADVANCED_FACE ( 'NONE', ( #124 ), #11, .T. ) ;
#209 = SURFACE_STYLE_FILL_AREA ( #43 ) ;
#210 = EDGE_LOOP ( 'NONE', ( #158, #188, #102, #84 ) ) ;
#211 = VECTOR ( 'NONE', #109, 1000.000000000000000 ) ;
#212 = MECHANICAL_DESIGN_GEOMETRIC_PRESENTATION_REPRESENTATION (  '', ( #202 ), #273 ) ;
#213 = LINE ( 'NONE', #111, #238 ) ;
#214 = MECHANICAL_DESIGN_GEOMETRIC_PRESENTATION_REPRESENTATION (  '', ( #30 ), #7 ) ;
#215 = SURFACE_STYLE_FILL_AREA ( #42 ) ;
#216 =( NAMED_UNIT ( * ) PLANE_ANGLE_UNIT ( ) SI_UNIT ( $, .RADIAN. ) );
#217 = FILL_AREA_STYLE ('',( #224 ) ) ;
#218 =( NAMED_UNIT ( * ) PLANE_ANGLE_UNIT ( ) SI_UNIT ( $, .RADIAN. ) );
#219 = DIRECTION ( 'NONE',  ( -0.0000000000000000000, -1.000000000000000000, -0.0000000000000000000 ) ) ;
#220 = CARTESIAN_POINT ( 'NONE',  ( -4.999999999999999100, 0.4000000000000000200, -4.999999999999999100 ) ) ;
#221 = EDGE_CURVE ( 'NONE', #103, #91, #142, .T. ) ;
#222 = SURFACE_SIDE_STYLE ('',( #209 ) ) ;
#223 = SURFACE_SIDE_STYLE ('',( #167 ) ) ;
#224 = FILL_AREA_STYLE_COLOUR ( '', #186 ) ;
#225 = ORIENTED_EDGE ( 'NONE', *, *, #13, .F. ) ;
#226 = LINE ( 'NONE', #136, #58 ) ;
#227 = VECTOR ( 'NONE', #139, 1000.000000000000000 ) ;
#228 = EDGE_LOOP ( 'NONE', ( #286, #170, #159, #3 ) ) ;
#229 = ORIENTED_EDGE ( 'NONE', *, *, #115, .T. ) ;
#230 = STYLED_ITEM ( 'NONE', ( #232 ), #250 ) ;
#231 =( NAMED_UNIT ( * ) PLANE_ANGLE_UNIT ( ) SI_UNIT ( $, .RADIAN. ) );
#232 = PRESENTATION_STYLE_ASSIGNMENT (( #200 ) ) ;
#233 =( NAMED_UNIT ( * ) SI_UNIT ( $, .STERADIAN. ) SOLID_ANGLE_UNIT ( ) );
#234 = PLANE ( 'NONE',  #249 ) ;
#235 = PRODUCT_DEFINITION_CONTEXT ( 'detailed design', #175, 'design' ) ;
#236 = SURFACE_STYLE_FILL_AREA ( #4 ) ;
#237 = CARTESIAN_POINT ( 'NONE',  ( -4.999999999999997300, 0.4000000000000000200, 5.000000000000000900 ) ) ;
#238 = VECTOR ( 'NONE', #40, 1000.000000000000000 ) ;
#239 = CARTESIAN_POINT ( 'NONE',  ( -4.999999999999999100, 0.4000000000000000200, -4.999999999999999100 ) ) ;
#240 = EDGE_CURVE ( 'NONE', #66, #47, #226, .T. ) ;
#241 = PRESENTATION_STYLE_ASSIGNMENT (( #121 ) ) ;
#242 = UNCERTAINTY_MEASURE_WITH_UNIT (LENGTH_MEASURE( 1.000000000000000100E-005 ), #80, 'distance_accuracy_value', 'NONE');
#243 = DIRECTION ( 'NONE',  ( 0.0000000000000000000, -0.0000000000000000000, 1.000000000000000000 ) ) ;
#244 = FILL_AREA_STYLE_COLOUR ( '', #135 ) ;
#245 = DIRECTION ( 'NONE',  ( -0.0000000000000000000, -0.0000000000000000000, -1.000000000000000000 ) ) ;
#246 = AXIS2_PLACEMENT_3D ( 'NONE', #39, #178, #60 ) ;
#247 = ADVANCED_FACE ( 'NONE', ( #74 ), #12, .F. ) ;
#248 = LINE ( 'NONE', #184, #211 ) ;
#249 = AXIS2_PLACEMENT_3D ( 'NONE', #220, #14, #107 ) ;
#250 = ADVANCED_FACE ( 'NONE', ( #95 ), #285, .F. ) ;
#251 = PRESENTATION_STYLE_ASSIGNMENT (( #118 ) ) ;
#252 = DIRECTION ( 'NONE',  ( 1.000000000000000000, 0.0000000000000000000, 0.0000000000000000000 ) ) ;
#253 = ORIENTED_EDGE ( 'NONE', *, *, #113, .T. ) ;
#254 = EDGE_CURVE ( 'NONE', #91, #66, #51, .T. ) ;
#255 = VECTOR ( 'NONE', #15, 1000.000000000000000 ) ;
#256 = SURFACE_SIDE_STYLE ('',( #279 ) ) ;
#257 =( NAMED_UNIT ( * ) PLANE_ANGLE_UNIT ( ) SI_UNIT ( $, .RADIAN. ) );
#258 = CARTESIAN_POINT ( 'NONE',  ( -4.999999999999997300, 0.0000000000000000000, 5.000000000000000900 ) ) ;
#259 = CARTESIAN_POINT ( 'NONE',  ( 0.0000000000000000000, 0.0000000000000000000, 0.0000000000000000000 ) ) ;
#260 = CARTESIAN_POINT ( 'NONE',  ( -4.999999999999999100, 0.4000000000000000200, -4.999999999999999100 ) ) ;
#261 = FILL_AREA_STYLE_COLOUR ( '', #147 ) ;
#262 = DIRECTION ( 'NONE',  ( 0.0000000000000000000, -0.0000000000000000000, 1.000000000000000000 ) ) ;
#263 = EDGE_CURVE ( 'NONE', #116, #103, #264, .T. ) ;
#264 = LINE ( 'NONE', #237, #161 ) ;
#265 = SURFACE_STYLE_USAGE ( .BOTH. , #131 ) ;
#266 = COLOUR_RGB ( '',1.000000000000000000, 1.000000000000000000, 1.000000000000000000 ) ;
#267 = EDGE_LOOP ( 'NONE', ( #289, #123, #225, #56 ) ) ;
#268 = PRESENTATION_LAYER_ASSIGNMENT (  '', '', ( #30 ) ) ;
#269 = EDGE_CURVE ( 'NONE', #28, #47, #31, .T. ) ;
#270 = SURFACE_SIDE_STYLE ('',( #236 ) ) ;
#271 = DIRECTION ( 'NONE',  ( -8.673617379884039200E-017, 0.0000000000000000000, -1.000000000000000000 ) ) ;
#272 = VECTOR ( 'NONE', #245, 1000.000000000000000 ) ;
#273 =( GEOMETRIC_REPRESENTATION_CONTEXT ( 3 ) GLOBAL_UNCERTAINTY_ASSIGNED_CONTEXT ( ( #57 ) ) GLOBAL_UNIT_ASSIGNED_CONTEXT ( ( #105, #71, #278 ) ) REPRESENTATION_CONTEXT ( 'NONE', 'WORKASPACE' ) );
#274 = FILL_AREA_STYLE_COLOUR ( '', #83 ) ;
#275 = DIRECTION ( 'NONE',  ( -0.0000000000000000000, 1.000000000000000000, 0.0000000000000000000 ) ) ;
#276 = PRESENTATION_STYLE_ASSIGNMENT (( #205 ) ) ;
#277 = DIRECTION ( 'NONE',  ( 8.673617379884036700E-017, -0.0000000000000000000, 1.000000000000000000 ) ) ;
#278 =( NAMED_UNIT ( * ) SI_UNIT ( $, .STERADIAN. ) SOLID_ANGLE_UNIT ( ) );
#279 = SURFACE_STYLE_FILL_AREA ( #99 ) ;
#280 =( LENGTH_UNIT ( ) NAMED_UNIT ( * ) SI_UNIT ( .MILLI., .METRE. ) );
#281 = CARTESIAN_POINT ( 'NONE',  ( 4.999999999999999100, 0.4000000000000000200, 5.000000000000000000 ) ) ;
#282 = FACE_OUTER_BOUND ( 'NONE', #210, .T. ) ;
#283 = CARTESIAN_POINT ( 'NONE',  ( -4.999999999999999100, 0.0000000000000000000, -4.999999999999999100 ) ) ;
#284 = EDGE_LOOP ( 'NONE', ( #154, #114, #169, #61 ) ) ;
#285 = PLANE ( 'NONE',  #138 ) ;
#286 = ORIENTED_EDGE ( 'NONE', *, *, #13, .T. ) ;
#287 = PRESENTATION_LAYER_ASSIGNMENT (  '', '', ( #230 ) ) ;
#288 = PRESENTATION_STYLE_ASSIGNMENT (( #182 ) ) ;
#289 = ORIENTED_EDGE ( 'NONE', *, *, #16, .F. ) ;
#290 = ADVANCED_FACE ( 'NONE', ( #282 ), #21, .F. ) ;
#291 = UNCERTAINTY_MEASURE_WITH_UNIT (LENGTH_MEASURE( 1.000000000000000100E-005 ), #8, 'distance_accuracy_value', 'NONE');
#292 = VECTOR ( 'NONE', #10, 1000.000000000000000 ) ;
ENDSEC;
END-ISO-10303-21;
