ISO-10303-21;
HEADER;
FILE_DESCRIPTION (( 'STEP AP203' ),
    '1' );
FILE_NAME ('Web Model 48447.STEP',
    '2017-01-31T15:21:24',
    ( '' ),
    ( '' ),
    'SwSTEP 2.0',
    'SolidWorks 2016',
    '' );
FILE_SCHEMA (( 'CONFIG_CONTROL_DESIGN' ));
ENDSEC;

DATA;
#1 = ORIENTED_EDGE ( 'NONE', *, *, #86, .T. ) ;
#2 = CIRCLE ( 'NONE', #95, 25.00000000000000000 ) ;
#3 = DIRECTION ( 'NONE',  ( 1.000000000000000000, 0.0000000000000000000, 0.0000000000000000000 ) ) ;
#4 = VECTOR ( 'NONE', #142, 1000.000000000000000 ) ;
#5 = CALENDAR_DATE ( 2017, 31, 1 ) ;
#6 = DIRECTION ( 'NONE',  ( 0.0000000000000000000, 0.0000000000000000000, 1.000000000000000000 ) ) ;
#7 = LOCAL_TIME ( 10, 21, 24.00000000000000000, #110 ) ;
#8 = CC_DESIGN_SECURITY_CLASSIFICATION ( #12, ( #153 ) ) ;
#9 =( NAMED_UNIT ( * ) PLANE_ANGLE_UNIT ( ) SI_UNIT ( $, .RADIAN. ) );
#10 = PLANE ( 'NONE',  #40 ) ;
#11 = CYLINDRICAL_SURFACE ( 'NONE', #173, 25.00000000000000000 ) ;
#12 = SECURITY_CLASSIFICATION ( '', '', #99 ) ;
#13 = VERTEX_POINT ( 'NONE', #63 ) ;
#14 = PERSON_AND_ORGANIZATION ( #169, #20 ) ;
#15 = ORIENTED_EDGE ( 'NONE', *, *, #102, .T. ) ;
#16 = ORIENTED_EDGE ( 'NONE', *, *, #41, .F. ) ;
#17 = DIRECTION ( 'NONE',  ( 0.0000000000000000000, 0.0000000000000000000, 1.000000000000000000 ) ) ;
#18 = FACE_OUTER_BOUND ( 'NONE', #34, .T. ) ;
#19 = DIRECTION ( 'NONE',  ( 1.000000000000000000, 0.0000000000000000000, -0.0000000000000000000 ) ) ;
#20 = ORGANIZATION ( 'UNSPECIFIED', 'UNSPECIFIED', '' ) ;
#21 = CARTESIAN_POINT ( 'NONE',  ( 0.0000000000000000000, 0.0000000000000000000, 0.0000000000000000000 ) ) ;
#22 = APPROVAL_DATE_TIME ( #149, #45 ) ;
#23 = APPLICATION_PROTOCOL_DEFINITION ( 'international standard', 'config_control_design', 1994, #96 ) ;
#24 = EDGE_LOOP ( 'NONE', ( #120, #87, #77, #127 ) ) ;
#25 = DIRECTION ( 'NONE',  ( 1.000000000000000000, 0.0000000000000000000, 0.0000000000000000000 ) ) ;
#26 = AXIS2_PLACEMENT_3D ( 'NONE', #138, #17, #19 ) ;
#27 = VECTOR ( 'NONE', #6, 1000.000000000000000 ) ;
#28 = CLOSED_SHELL ( 'NONE', ( #144, #112, #74, #160 ) ) ;
#29 = DATE_AND_TIME ( #80, #7 ) ;
#30 = CALENDAR_DATE ( 2017, 31, 1 ) ;
#31 = CIRCLE ( 'NONE', #139, 25.00000000000000000 ) ;
#32 = CC_DESIGN_DATE_AND_TIME_ASSIGNMENT ( #70, #131, ( #55 ) ) ;
#33 = DIRECTION ( 'NONE',  ( 0.0000000000000000000, 0.0000000000000000000, 1.000000000000000000 ) ) ;
#34 = EDGE_LOOP ( 'NONE', ( #16, #15, #68, #44 ) ) ;
#35 = APPROVAL_STATUS ( 'not_yet_approved' ) ;
#36 =( NAMED_UNIT ( * ) SI_UNIT ( $, .STERADIAN. ) SOLID_ANGLE_UNIT ( ) );
#37 = DIRECTION ( 'NONE',  ( 1.000000000000000000, 0.0000000000000000000, 0.0000000000000000000 ) ) ;
#38 = APPLICATION_PROTOCOL_DEFINITION ( 'international standard', 'config_control_design', 1994, #174 ) ;
#39 = CC_DESIGN_PERSON_AND_ORGANIZATION_ASSIGNMENT ( #168, #97, ( #153 ) ) ;
#40 = AXIS2_PLACEMENT_3D ( 'NONE', #123, #57, #119 ) ;
#41 = EDGE_CURVE ( 'NONE', #46, #13, #62, .T. ) ;
#42 = AXIS2_PLACEMENT_3D ( 'NONE', #154, #94, #69 ) ;
#43 = LOCAL_TIME ( 10, 21, 24.00000000000000000, #118 ) ;
#44 = ORIENTED_EDGE ( 'NONE', *, *, #147, .F. ) ;
#45 = APPROVAL ( #56, 'UNSPECIFIED' ) ;
#46 = VERTEX_POINT ( 'NONE', #129 ) ;
#47 = DATE_TIME_ROLE ( 'classification_date' ) ;
#48 = CARTESIAN_POINT ( 'NONE',  ( 0.0000000000000000000, 0.0000000000000000000, -4.000000000000000000 ) ) ;
#49 = PERSON_AND_ORGANIZATION ( #169, #20 ) ;
#50 = LINE ( 'NONE', #98, #27 ) ;
#51 = CARTESIAN_POINT ( 'NONE',  ( 0.0000000000000000000, 0.0000000000000000000, -4.000000000000000000 ) ) ;
#52 = APPROVAL_PERSON_ORGANIZATION ( #166, #116, #121 ) ;
#53 = DIRECTION ( 'NONE',  ( 0.0000000000000000000, 0.0000000000000000000, 1.000000000000000000 ) ) ;
#54 = FACE_OUTER_BOUND ( 'NONE', #132, .T. ) ;
#55 = PRODUCT_DEFINITION ( 'UNKNOWN', '', #153, #126 ) ;
#56 = APPROVAL_STATUS ( 'not_yet_approved' ) ;
#57 = DIRECTION ( 'NONE',  ( 0.0000000000000000000, 0.0000000000000000000, 1.000000000000000000 ) ) ;
#58 = ORIENTED_EDGE ( 'NONE', *, *, #102, .F. ) ;
#59 = APPROVAL_PERSON_ORGANIZATION ( #49, #45, #175 ) ;
#60 = ORIENTED_EDGE ( 'NONE', *, *, #66, .F. ) ;
#61 = PRODUCT_DEFINITION_SHAPE ( 'NONE', 'NONE',  #55 ) ;
#62 = LINE ( 'NONE', #117, #4 ) ;
#63 = CARTESIAN_POINT ( 'NONE',  ( -25.00000000000000000, 3.061616997868383000E-015, 0.0000000000000000000 ) ) ;
#64 = AXIS2_PLACEMENT_3D ( 'NONE', #109, #53, #37 ) ;
#65 = SHAPE_DEFINITION_REPRESENTATION ( #61, #83 ) ;
#66 = EDGE_CURVE ( 'NONE', #133, #46, #31, .T. ) ;
#67 = DIRECTION ( 'NONE',  ( 1.000000000000000000, 0.0000000000000000000, 0.0000000000000000000 ) ) ;
#68 = ORIENTED_EDGE ( 'NONE', *, *, #140, .T. ) ;
#69 = DIRECTION ( 'NONE',  ( 1.000000000000000000, 0.0000000000000000000, 0.0000000000000000000 ) ) ;
#70 = DATE_AND_TIME ( #103, #151 ) ;
#71 = AXIS2_PLACEMENT_3D ( 'NONE', #48, #81, #67 ) ;
#72 = EDGE_LOOP ( 'NONE', ( #60, #58 ) ) ;
#73 = DIRECTION ( 'NONE',  ( 0.0000000000000000000, 0.0000000000000000000, 1.000000000000000000 ) ) ;
#74 = ADVANCED_FACE ( 'NONE', ( #125 ), #156, .F. ) ;
#75 = CC_DESIGN_PERSON_AND_ORGANIZATION_ASSIGNMENT ( #162, #164, ( #55 ) ) ;
#76 = LOCAL_TIME ( 10, 21, 24.00000000000000000, #108 ) ;
#77 = ORIENTED_EDGE ( 'NONE', *, *, #86, .F. ) ;
#78 = CC_DESIGN_APPROVAL ( #170, ( #12 ) ) ;
#79 = LOCAL_TIME ( 10, 21, 24.00000000000000000, #89 ) ;
#80 = CALENDAR_DATE ( 2017, 31, 1 ) ;
#81 = DIRECTION ( 'NONE',  ( 0.0000000000000000000, 0.0000000000000000000, 1.000000000000000000 ) ) ;
#82 =( GEOMETRIC_REPRESENTATION_CONTEXT ( 3 ) GLOBAL_UNCERTAINTY_ASSIGNED_CONTEXT ( ( #88 ) ) GLOBAL_UNIT_ASSIGNED_CONTEXT ( ( #163, #9, #36 ) ) REPRESENTATION_CONTEXT ( 'NONE', 'WORKASPACE' ) );
#83 = ADVANCED_BREP_SHAPE_REPRESENTATION ( 'Web Model 48447', ( #104, #115 ), #82 ) ;
#84 = DIRECTION ( 'NONE',  ( 1.000000000000000000, 0.0000000000000000000, 0.0000000000000000000 ) ) ;
#85 = APPROVAL_STATUS ( 'not_yet_approved' ) ;
#86 = EDGE_CURVE ( 'NONE', #91, #13, #100, .T. ) ;
#87 = ORIENTED_EDGE ( 'NONE', *, *, #41, .T. ) ;
#88 = UNCERTAINTY_MEASURE_WITH_UNIT (LENGTH_MEASURE( 1.000000000000000100E-005 ), #163, 'distance_accuracy_value', 'NONE');
#89 = COORDINATED_UNIVERSAL_TIME_OFFSET ( 5, 0, .BEHIND. ) ;
#90 = APPROVAL_DATE_TIME ( #135, #116 ) ;
#91 = VERTEX_POINT ( 'NONE', #128 ) ;
#92 = PERSON_AND_ORGANIZATION ( #169, #20 ) ;
#93 = DIRECTION ( 'NONE',  ( 1.000000000000000000, 0.0000000000000000000, 0.0000000000000000000 ) ) ;
#94 = DIRECTION ( 'NONE',  ( 0.0000000000000000000, 0.0000000000000000000, 1.000000000000000000 ) ) ;
#95 = AXIS2_PLACEMENT_3D ( 'NONE', #21, #114, #25 ) ;
#96 = APPLICATION_CONTEXT ( 'configuration controlled 3d designs of mechanical parts and assemblies' ) ;
#97 = PERSON_AND_ORGANIZATION_ROLE ( 'creator' ) ;
#98 = CARTESIAN_POINT ( 'NONE',  ( 25.00000000000000000, 0.0000000000000000000, -4.000000000000000000 ) ) ;
#99 = SECURITY_CLASSIFICATION_LEVEL ( 'unclassified' ) ;
#100 = CIRCLE ( 'NONE', #42, 25.00000000000000000 ) ;
#101 = APPROVAL_PERSON_ORGANIZATION ( #14, #170, #141 ) ;
#102 = EDGE_CURVE ( 'NONE', #46, #133, #105, .T. ) ;
#103 = CALENDAR_DATE ( 2017, 31, 1 ) ;
#104 = MANIFOLD_SOLID_BREP ( 'Extrude1', #28 ) ;
#105 = CIRCLE ( 'NONE', #71, 25.00000000000000000 ) ;
#106 = APPROVAL_DATE_TIME ( #137, #170 ) ;
#107 = COORDINATED_UNIVERSAL_TIME_OFFSET ( 5, 0, .BEHIND. ) ;
#108 = COORDINATED_UNIVERSAL_TIME_OFFSET ( 5, 0, .BEHIND. ) ;
#109 = CARTESIAN_POINT ( 'NONE',  ( 0.0000000000000000000, 0.0000000000000000000, -4.000000000000000000 ) ) ;
#110 = COORDINATED_UNIVERSAL_TIME_OFFSET ( 5, 0, .BEHIND. ) ;
#111 = CARTESIAN_POINT ( 'NONE',  ( 0.0000000000000000000, 0.0000000000000000000, 0.0000000000000000000 ) ) ;
#112 = ADVANCED_FACE ( 'NONE', ( #18 ), #11, .T. ) ;
#113 = PERSON_AND_ORGANIZATION_ROLE ( 'design_supplier' ) ;
#114 = DIRECTION ( 'NONE',  ( 0.0000000000000000000, 0.0000000000000000000, 1.000000000000000000 ) ) ;
#115 = AXIS2_PLACEMENT_3D ( 'NONE', #111, #73, #84 ) ;
#116 = APPROVAL ( #85, 'UNSPECIFIED' ) ;
#117 = CARTESIAN_POINT ( 'NONE',  ( -25.00000000000000000, 3.061616997868383000E-015, -4.000000000000000000 ) ) ;
#118 = COORDINATED_UNIVERSAL_TIME_OFFSET ( 5, 0, .BEHIND. ) ;
#119 = DIRECTION ( 'NONE',  ( 1.000000000000000000, 0.0000000000000000000, -0.0000000000000000000 ) ) ;
#120 = ORIENTED_EDGE ( 'NONE', *, *, #66, .T. ) ;
#121 = APPROVAL_ROLE ( '' ) ;
#122 = CALENDAR_DATE ( 2017, 31, 1 ) ;
#123 = CARTESIAN_POINT ( 'NONE',  ( 0.0000000000000000000, 0.0000000000000000000, 0.0000000000000000000 ) ) ;
#124 = CC_DESIGN_DATE_AND_TIME_ASSIGNMENT ( #29, #47, ( #12 ) ) ;
#125 = FACE_OUTER_BOUND ( 'NONE', #72, .T. ) ;
#126 = DESIGN_CONTEXT ( 'detailed design', #96, 'design' ) ;
#127 = ORIENTED_EDGE ( 'NONE', *, *, #140, .F. ) ;
#128 = CARTESIAN_POINT ( 'NONE',  ( 25.00000000000000000, 0.0000000000000000000, 0.0000000000000000000 ) ) ;
#129 = CARTESIAN_POINT ( 'NONE',  ( -25.00000000000000000, 3.061616997868383000E-015, -4.000000000000000000 ) ) ;
#130 = MECHANICAL_CONTEXT ( 'NONE', #174, 'mechanical' ) ;
#131 = DATE_TIME_ROLE ( 'creation_date' ) ;
#132 = EDGE_LOOP ( 'NONE', ( #1, #167 ) ) ;
#133 = VERTEX_POINT ( 'NONE', #146 ) ;
#134 = PRODUCT ( 'Web Model 48447', 'Web Model 48447', '', ( #130 ) ) ;
#135 = DATE_AND_TIME ( #122, #79 ) ;
#136 = PERSON_AND_ORGANIZATION ( #169, #20 ) ;
#137 = DATE_AND_TIME ( #30, #76 ) ;
#138 = CARTESIAN_POINT ( 'NONE',  ( 0.0000000000000000000, 0.0000000000000000000, -4.000000000000000000 ) ) ;
#139 = AXIS2_PLACEMENT_3D ( 'NONE', #171, #33, #3 ) ;
#140 = EDGE_CURVE ( 'NONE', #133, #91, #50, .T. ) ;
#141 = APPROVAL_ROLE ( '' ) ;
#142 = DIRECTION ( 'NONE',  ( 0.0000000000000000000, 0.0000000000000000000, 1.000000000000000000 ) ) ;
#143 = CC_DESIGN_PERSON_AND_ORGANIZATION_ASSIGNMENT ( #145, #113, ( #153 ) ) ;
#144 = ADVANCED_FACE ( 'NONE', ( #152 ), #158, .T. ) ;
#145 = PERSON_AND_ORGANIZATION ( #169, #20 ) ;
#146 = CARTESIAN_POINT ( 'NONE',  ( 25.00000000000000000, 0.0000000000000000000, -4.000000000000000000 ) ) ;
#147 = EDGE_CURVE ( 'NONE', #13, #91, #2, .T. ) ;
#148 = CC_DESIGN_APPROVAL ( #116, ( #55 ) ) ;
#149 = DATE_AND_TIME ( #5, #43 ) ;
#150 = CC_DESIGN_PERSON_AND_ORGANIZATION_ASSIGNMENT ( #136, #157, ( #12 ) ) ;
#151 = LOCAL_TIME ( 10, 21, 24.00000000000000000, #107 ) ;
#152 = FACE_OUTER_BOUND ( 'NONE', #24, .T. ) ;
#153 = PRODUCT_DEFINITION_FORMATION_WITH_SPECIFIED_SOURCE ( 'ANY', '', #134, .NOT_KNOWN. ) ;
#154 = CARTESIAN_POINT ( 'NONE',  ( 0.0000000000000000000, 0.0000000000000000000, 0.0000000000000000000 ) ) ;
#155 = DIRECTION ( 'NONE',  ( 0.0000000000000000000, 0.0000000000000000000, 1.000000000000000000 ) ) ;
#156 = PLANE ( 'NONE',  #26 ) ;
#157 = PERSON_AND_ORGANIZATION_ROLE ( 'classification_officer' ) ;
#158 = CYLINDRICAL_SURFACE ( 'NONE', #64, 25.00000000000000000 ) ;
#159 = PRODUCT_RELATED_PRODUCT_CATEGORY ( 'detail', '', ( #134 ) ) ;
#160 = ADVANCED_FACE ( 'NONE', ( #54 ), #10, .T. ) ;
#161 = PERSON_AND_ORGANIZATION_ROLE ( 'design_owner' ) ;
#162 = PERSON_AND_ORGANIZATION ( #169, #20 ) ;
#163 =( LENGTH_UNIT ( ) NAMED_UNIT ( * ) SI_UNIT ( .MILLI., .METRE. ) );
#164 = PERSON_AND_ORGANIZATION_ROLE ( 'creator' ) ;
#165 = CC_DESIGN_APPROVAL ( #45, ( #153 ) ) ;
#166 = PERSON_AND_ORGANIZATION ( #169, #20 ) ;
#167 = ORIENTED_EDGE ( 'NONE', *, *, #147, .T. ) ;
#168 = PERSON_AND_ORGANIZATION ( #169, #20 ) ;
#169 = PERSON ( 'UNSPECIFIED', 'UNSPECIFIED', 'UNSPECIFIED', ('UNSPECIFIED'), ('UNSPECIFIED'), ('UNSPECIFIED') ) ;
#170 = APPROVAL ( #35, 'UNSPECIFIED' ) ;
#171 = CARTESIAN_POINT ( 'NONE',  ( 0.0000000000000000000, 0.0000000000000000000, -4.000000000000000000 ) ) ;
#172 = CC_DESIGN_PERSON_AND_ORGANIZATION_ASSIGNMENT ( #92, #161, ( #134 ) ) ;
#173 = AXIS2_PLACEMENT_3D ( 'NONE', #51, #155, #93 ) ;
#174 = APPLICATION_CONTEXT ( 'configuration controlled 3d designs of mechanical parts and assemblies' ) ;
#175 = APPROVAL_ROLE ( '' ) ;
ENDSEC;
END-ISO-10303-21;
