ISO-10303-21;
HEADER;
FILE_DESCRIPTION (( 'STEP AP203' ),
    '1' );
FILE_NAME ('20139-E0W.STEP',
    '2019-07-16T11:13:17',
    ( '' ),
    ( '' ),
    'SwSTEP 2.0',
    'SolidWorks 2018',
    '' );
FILE_SCHEMA (( 'CONFIG_CONTROL_DESIGN' ));
ENDSEC;

DATA;
#1 = CONICAL_SURFACE ( 'NONE', #203, 1.250000000000000888, 0.7853981633974480570 ) ;
#2 = VERTEX_POINT ( 'NONE', #49 ) ;
#3 = PRODUCT_RELATED_PRODUCT_CATEGORY ( 'detail', '', ( #112 ) ) ;
#4 = DIRECTION ( 'NONE',  ( 0.0000000000000000000, -1.000000000000000000, -3.073328992872295874E-16 ) ) ;
#5 = PERSON_AND_ORGANIZATION_ROLE ( 'creator' ) ;
#6 = CIRCLE ( 'NONE', #147, 1.270000000000000018 ) ;
#7 = CARTESIAN_POINT ( 'NONE',  ( 0.0000000000000000000, -1.249342602211068930E-17, 0.06720797387050891913 ) ) ;
#8 = CARTESIAN_POINT ( 'NONE',  ( 0.0000000000000000000, 4.237137984225431654E-17, -0.1120000000000002105 ) ) ;
#9 = CARTESIAN_POINT ( 'NONE',  ( 0.0000000000000000000, -5.996340774213705049E-15, 0.08798214088444611392 ) ) ;
#10 = PERSON_AND_ORGANIZATION ( #110, #77 ) ;
#11 = DIRECTION ( 'NONE',  ( 0.0000000000000000000, 1.000000000000000000, 3.073328992872295874E-16 ) ) ;
#12 = CALENDAR_DATE ( 2019, 16, 7 ) ;
#13 = DIRECTION ( 'NONE',  ( -0.0000000000000000000, 3.061515884555943146E-16, -1.000000000000000000 ) ) ;
#14 = ORIENTED_EDGE ( 'NONE', *, *, #252, .F. ) ;
#15 = VERTEX_POINT ( 'NONE', #244 ) ;
#16 = DIRECTION ( 'NONE',  ( 0.0000000000000000000, 1.000000000000000000, 3.073328992872295874E-16 ) ) ;
#17 = AXIS2_PLACEMENT_3D ( 'NONE', #95, #221, #176 ) ;
#18 = CARTESIAN_POINT ( 'NONE',  ( 0.0000000000000000000, -1.249342602211095893E-17, 0.06720797387050891913 ) ) ;
#19 = VERTEX_POINT ( 'NONE', #301 ) ;
#20 = DIRECTION ( 'NONE',  ( 0.0000000000000000000, -1.000000000000000000, -3.122502256758250798E-16 ) ) ;
#21 = LINE ( 'NONE', #237, #200 ) ;
#22 = CARTESIAN_POINT ( 'NONE',  ( 0.0000000000000000000, -1.250000000000000888, -0.1120000000000005991 ) ) ;
#23 = PERSON_AND_ORGANIZATION_ROLE ( 'design_owner' ) ;
#24 = DIRECTION ( 'NONE',  ( 0.0000000000000000000, 1.000000000000000000, 3.073328992872295874E-16 ) ) ;
#25 = CALENDAR_DATE ( 2019, 16, 7 ) ;
#26 = ORIENTED_EDGE ( 'NONE', *, *, #40, .T. ) ;
#27 = ORIENTED_EDGE ( 'NONE', *, *, #108, .F. ) ;
#28 = APPROVAL_STATUS ( 'not_yet_approved' ) ;
#29 = CC_DESIGN_APPROVAL ( #298, ( #284 ) ) ;
#30 = DIRECTION ( 'NONE',  ( 0.0000000000000000000, -1.000000000000000000, -3.122502256758250798E-16 ) ) ;
#31 = APPROVAL ( #28, 'UNSPECIFIED' ) ;
#32 = DATE_AND_TIME ( #164, #148 ) ;
#33 = VECTOR ( 'NONE', #44, 100.0000000000000000 ) ;
#34 = AXIS2_PLACEMENT_3D ( 'NONE', #168, #13, #86 ) ;
#35 = EDGE_LOOP ( 'NONE', ( #39, #56, #122, #262 ) ) ;
#36 = DIRECTION ( 'NONE',  ( -0.0000000000000000000, 3.061515884555943146E-16, -1.000000000000000000 ) ) ;
#37 = DIRECTION ( 'NONE',  ( 0.0000000000000000000, -3.061515884555941666E-16, 1.000000000000000000 ) ) ;
#38 = ADVANCED_FACE ( 'NONE', ( #296 ), #51, .T. ) ;
#39 = ORIENTED_EDGE ( 'NONE', *, *, #263, .F. ) ;
#40 = EDGE_CURVE ( 'NONE', #145, #194, #130, .T. ) ;
#41 = CARTESIAN_POINT ( 'NONE',  ( 0.0000000000000000000, 3.958784960001597347E-15, -32.42900000000001626 ) ) ;
#42 = CARTESIAN_POINT ( 'NONE',  ( 1.555301434917138334E-16, -1.270000000000000018, 0.06720797387050853056 ) ) ;
#43 = FACE_OUTER_BOUND ( 'NONE', #201, .T. ) ;
#44 = DIRECTION ( 'NONE',  ( -0.0000000000000000000, 3.061515884555943146E-16, -1.000000000000000000 ) ) ;
#45 = DIRECTION ( 'NONE',  ( 8.659560562354929160E-17, 0.7071067811865471286, 0.7071067811865479058 ) ) ;
#46 = CC_DESIGN_PERSON_AND_ORGANIZATION_ASSIGNMENT ( #121, #5, ( #284 ) ) ;
#47 = CARTESIAN_POINT ( 'NONE',  ( 0.0000000000000000000, 4.237137984225431038E-17, -0.1120000000000002105 ) ) ;
#48 = ORIENTED_EDGE ( 'NONE', *, *, #165, .T. ) ;
#49 = CARTESIAN_POINT ( 'NONE',  ( 0.0000000000000000000, 1.250021379577590741, 0.08798214088444353265 ) ) ;
#50 = FACE_OUTER_BOUND ( 'NONE', #291, .T. ) ;
#51 = CYLINDRICAL_SURFACE ( 'NONE', #183, 1.270000000000000018 ) ;
#52 = CARTESIAN_POINT ( 'NONE',  ( 0.0000000000000000000, 3.958784960001597347E-15, -32.42900000000001626 ) ) ;
#53 = AXIS2_PLACEMENT_3D ( 'NONE', #287, #271, #141 ) ;
#54 = DIRECTION ( 'NONE',  ( 0.0000000000000000000, -1.000000000000000000, -3.073328992872295874E-16 ) ) ;
#55 = CALENDAR_DATE ( 2019, 16, 7 ) ;
#56 = ORIENTED_EDGE ( 'NONE', *, *, #249, .T. ) ;
#57 = ADVANCED_FACE ( 'NONE', ( #61 ), #267, .T. ) ;
#58 = COORDINATED_UNIVERSAL_TIME_OFFSET ( 5, 0, .BEHIND. ) ;
#59 = FACE_OUTER_BOUND ( 'NONE', #115, .T. ) ;
#60 = DIRECTION ( 'NONE',  ( 0.0000000000000000000, -3.061515884556352860E-16, 1.000000000000000000 ) ) ;
#61 = FACE_OUTER_BOUND ( 'NONE', #300, .T. ) ;
#62 = CARTESIAN_POINT ( 'NONE',  ( 0.0000000000000000000, 3.624834807314268046E-17, -0.09200000000000101152 ) ) ;
#63 = DIRECTION ( 'NONE',  ( 0.0000000000000000000, 1.000000000000000000, 3.035714161130819604E-16 ) ) ;
#64 =( NAMED_UNIT ( * ) PLANE_ANGLE_UNIT ( ) SI_UNIT ( $, .RADIAN. ) );
#65 = SPHERICAL_SURFACE ( 'NONE', #17, 32.54100000000001103 ) ;
#66 = APPROVAL ( #158, 'UNSPECIFIED' ) ;
#67 = ORIENTED_EDGE ( 'NONE', *, *, #252, .T. ) ;
#68 = DIRECTION ( 'NONE',  ( -0.0000000000000000000, 3.061515884555943146E-16, -1.000000000000000000 ) ) ;
#69 = ORIENTED_EDGE ( 'NONE', *, *, #92, .F. ) ;
#70 = DIRECTION ( 'NONE',  ( -0.0000000000000000000, 3.061515884556352860E-16, -1.000000000000000000 ) ) ;
#71 = CC_DESIGN_PERSON_AND_ORGANIZATION_ASSIGNMENT ( #282, #23, ( #112 ) ) ;
#72 = CARTESIAN_POINT ( 'NONE',  ( 0.0000000000000000000, 1.270000000000000018, -0.09200000000000062295 ) ) ;
#73 = DIRECTION ( 'NONE',  ( -0.0000000000000000000, 3.061515884555943146E-16, -1.000000000000000000 ) ) ;
#74 = CONICAL_SURFACE ( 'NONE', #225, 1.270000000000000018, 0.7658793621395362239 ) ;
#75 = ORIENTED_EDGE ( 'NONE', *, *, #276, .F. ) ;
#76 = EDGE_CURVE ( 'NONE', #161, #19, #124, .T. ) ;
#77 = ORGANIZATION ( 'UNSPECIFIED', 'UNSPECIFIED', '' ) ;
#78 = DIRECTION ( 'NONE',  ( 0.0000000000000000000, -0.7071067811865476838, 0.7071067811865474617 ) ) ;
#79 = PERSON_AND_ORGANIZATION ( #110, #77 ) ;
#80 = LINE ( 'NONE', #229, #177 ) ;
#81 = CC_DESIGN_DATE_AND_TIME_ASSIGNMENT ( #114, #204, ( #231 ) ) ;
#82 = ORIENTED_EDGE ( 'NONE', *, *, #276, .T. ) ;
#83 = AXIS2_PLACEMENT_3D ( 'NONE', #41, #220, #260 ) ;
#84 = CARTESIAN_POINT ( 'NONE',  ( 1.555301434917138827E-16, -1.270000000000000018, 0.06720797387050853056 ) ) ;
#85 = FACE_OUTER_BOUND ( 'NONE', #187, .T. ) ;
#86 = DIRECTION ( 'NONE',  ( 0.0000000000000000000, 1.000000000000000000, 3.061515884555943146E-16 ) ) ;
#87 = PRODUCT_DEFINITION ( 'UNKNOWN', '', #284, #175 ) ;
#88 = DATE_AND_TIME ( #25, #159 ) ;
#89 = CARTESIAN_POINT ( 'NONE',  ( 0.0000000000000000000, 4.237137984225425491E-17, -0.1120000000000000162 ) ) ;
#90 = ORIENTED_EDGE ( 'NONE', *, *, #165, .F. ) ;
#91 = APPROVAL_DATE_TIME ( #32, #31 ) ;
#92 = EDGE_CURVE ( 'NONE', #98, #15, #288, .T. ) ;
#93 = FACE_OUTER_BOUND ( 'NONE', #227, .T. ) ;
#94 = PRODUCT_DEFINITION_SHAPE ( 'NONE', 'NONE',  #87 ) ;
#95 = CARTESIAN_POINT ( 'NONE',  ( 0.0000000000000000000, 3.958784960001597347E-15, -32.42900000000001626 ) ) ;
#96 = DATE_AND_TIME ( #55, #274 ) ;
#97 = VECTOR ( 'NONE', #297, 99.99999999999998579 ) ;
#98 = VERTEX_POINT ( 'NONE', #84 ) ;
#99 = EDGE_CURVE ( 'NONE', #2, #15, #80, .T. ) ;
#100 = COORDINATED_UNIVERSAL_TIME_OFFSET ( 5, 0, .BEHIND. ) ;
#101 = ORIENTED_EDGE ( 'NONE', *, *, #92, .T. ) ;
#102 = DIRECTION ( 'NONE',  ( 0.0000000000000000000, -3.061515884555941666E-16, 1.000000000000000000 ) ) ;
#103 = CARTESIAN_POINT ( 'NONE',  ( 0.0000000000000000000, -1.249342602211095893E-17, 0.06720797387050891913 ) ) ;
#104 = APPROVAL_ROLE ( '' ) ;
#105 = DIRECTION ( 'NONE',  ( -1.000000000000000000, 0.0000000000000000000, 0.0000000000000000000 ) ) ;
#106 = CIRCLE ( 'NONE', #186, 1.250021379577356706 ) ;
#107 = CLOSED_SHELL ( 'NONE', ( #217, #139, #286, #191, #292, #172, #38, #57, #142 ) ) ;
#108 = EDGE_CURVE ( 'NONE', #181, #2, #208, .T. ) ;
#109 = ORIENTED_EDGE ( 'NONE', *, *, #120, .T. ) ;
#110 = PERSON ( 'UNSPECIFIED', 'UNSPECIFIED', 'UNSPECIFIED', ('UNSPECIFIED'), ('UNSPECIFIED'), ('UNSPECIFIED') ) ;
#111 = APPLICATION_PROTOCOL_DEFINITION ( 'international standard', 'config_control_design', 1994, #250 ) ;
#112 = PRODUCT ( '20139-E0W', '20139-E0W', '', ( #289 ) ) ;
#113 = DIRECTION ( 'NONE',  ( -0.0000000000000000000, 3.061515884556352860E-16, -1.000000000000000000 ) ) ;
#114 = DATE_AND_TIME ( #251, #185 ) ;
#115 = EDGE_LOOP ( 'NONE', ( #90, #256, #14, #133 ) ) ;
#116 = AXIS2_PLACEMENT_3D ( 'NONE', #89, #36, #216 ) ;
#117 = APPROVAL_DATE_TIME ( #96, #298 ) ;
#118 = ORIENTED_EDGE ( 'NONE', *, *, #167, .F. ) ;
#119 = APPLICATION_PROTOCOL_DEFINITION ( 'international standard', 'config_control_design', 1994, #234 ) ;
#120 = EDGE_CURVE ( 'NONE', #15, #98, #6, .T. ) ;
#121 = PERSON_AND_ORGANIZATION ( #110, #77 ) ;
#122 = ORIENTED_EDGE ( 'NONE', *, *, #120, .F. ) ;
#123 = CIRCLE ( 'NONE', #239, 1.270000000000000018 ) ;
#124 = CIRCLE ( 'NONE', #178, 1.270000000000000018 ) ;
#125 = CARTESIAN_POINT ( 'NONE',  ( 1.543054966925665569E-16, 1.250000000000000888, -0.1119999999999998219 ) ) ;
#126 = AXIS2_PLACEMENT_3D ( 'NONE', #299, #102, #20 ) ;
#127 = CARTESIAN_POINT ( 'NONE',  ( 0.0000000000000000000, 3.958784960001597347E-15, -32.42900000000001626 ) ) ;
#128 = PERSON_AND_ORGANIZATION ( #110, #77 ) ;
#129 = DIRECTION ( 'NONE',  ( 0.0000000000000000000, 1.000000000000000000, 3.122502256758250798E-16 ) ) ;
#130 = CIRCLE ( 'NONE', #212, 1.250000000000000888 ) ;
#131 = EDGE_CURVE ( 'NONE', #145, #19, #143, .T. ) ;
#132 = CIRCLE ( 'NONE', #195, 1.250000000000000888 ) ;
#133 = ORIENTED_EDGE ( 'NONE', *, *, #131, .F. ) ;
#134 = DIRECTION ( 'NONE',  ( 0.0000000000000000000, 0.0000000000000000000, 1.000000000000000000 ) ) ;
#135 = APPROVAL_ROLE ( '' ) ;
#136 = DIRECTION ( 'NONE',  ( 0.0000000000000000000, -3.061515884555941666E-16, 1.000000000000000000 ) ) ;
#137 = ORIENTED_EDGE ( 'NONE', *, *, #249, .F. ) ;
#138 = EDGE_CURVE ( 'NONE', #2, #171, #106, .T. ) ;
#139 = ADVANCED_FACE ( 'NONE', ( #59 ), #1, .T. ) ;
#140 = PERSON_AND_ORGANIZATION ( #110, #77 ) ;
#141 = DIRECTION ( 'NONE',  ( 1.000000000000000000, 0.0000000000000000000, 0.0000000000000000000 ) ) ;
#142 = ADVANCED_FACE ( 'NONE', ( #93 ), #214, .T. ) ;
#143 = LINE ( 'NONE', #22, #272 ) ;
#144 = ORIENTED_EDGE ( 'NONE', *, *, #149, .T. ) ;
#145 = VERTEX_POINT ( 'NONE', #150 ) ;
#146 = MANIFOLD_SOLID_BREP ( '20139-001-1-solid1', #107 ) ;
#147 = AXIS2_PLACEMENT_3D ( 'NONE', #205, #157, #4 ) ;
#148 = LOCAL_TIME ( 7, 13, 17.00000000000000000, #100 ) ;
#149 = EDGE_CURVE ( 'NONE', #181, #171, #222, .T. ) ;
#150 = CARTESIAN_POINT ( 'NONE',  ( 0.0000000000000000000, -1.250000000000000888, -0.1120000000000005991 ) ) ;
#151 = DIRECTION ( 'NONE',  ( 0.0000000000000000000, 1.000000000000000000, 3.411766769998328610E-16 ) ) ;
#152 = APPROVAL_DATE_TIME ( #88, #66 ) ;
#153 = ORIENTED_EDGE ( 'NONE', *, *, #131, .T. ) ;
#154 = ORIENTED_EDGE ( 'NONE', *, *, #108, .T. ) ;
#155 = CC_DESIGN_APPROVAL ( #31, ( #231 ) ) ;
#156 = LOCAL_TIME ( 7, 13, 17.00000000000000000, #258 ) ;
#157 = DIRECTION ( 'NONE',  ( -0.0000000000000000000, 3.061515884556352860E-16, -1.000000000000000000 ) ) ;
#158 = APPROVAL_STATUS ( 'not_yet_approved' ) ;
#159 = LOCAL_TIME ( 7, 13, 17.00000000000000000, #169 ) ;
#160 = EDGE_CURVE ( 'NONE', #194, #161, #211, .T. ) ;
#161 = VERTEX_POINT ( 'NONE', #72 ) ;
#162 = ORIENTED_EDGE ( 'NONE', *, *, #160, .F. ) ;
#163 = DIRECTION ( 'NONE',  ( 0.0000000000000000000, 1.000000000000000000, 3.035714161130819604E-16 ) ) ;
#164 = CALENDAR_DATE ( 2019, 16, 7 ) ;
#165 = EDGE_CURVE ( 'NONE', #194, #145, #132, .T. ) ;
#166 = DIRECTION ( 'NONE',  ( 0.0000000000000000000, 1.000000000000000000, 3.073328992872295874E-16 ) ) ;
#167 = EDGE_CURVE ( 'NONE', #15, #161, #254, .T. ) ;
#168 = CARTESIAN_POINT ( 'NONE',  ( 0.0000000000000000000, 4.237137984225431654E-17, -0.1120000000000002105 ) ) ;
#169 = COORDINATED_UNIVERSAL_TIME_OFFSET ( 5, 0, .BEHIND. ) ;
#170 = EDGE_LOOP ( 'NONE', ( #26, #48 ) ) ;
#171 = VERTEX_POINT ( 'NONE', #277 ) ;
#172 = ADVANCED_FACE ( 'NONE', ( #43 ), #295, .T. ) ;
#173 = AXIS2_PLACEMENT_3D ( 'NONE', #52, #105, #134 ) ;
#174 = EDGE_LOOP ( 'NONE', ( #75, #101, #215, #255 ) ) ;
#175 = DESIGN_CONTEXT ( 'detailed design', #250, 'design' ) ;
#176 = DIRECTION ( 'NONE',  ( 0.0000000000000000000, 1.000000000000000000, 3.411766769998328610E-16 ) ) ;
#177 = VECTOR ( 'NONE', #245, 100.0000000000000000 ) ;
#178 = AXIS2_PLACEMENT_3D ( 'NONE', #285, #136, #24 ) ;
#179 = CARTESIAN_POINT ( 'NONE',  ( 1.530808498934192803E-16, 1.250000000000000888, -0.1119999999999998219 ) ) ;
#180 = CARTESIAN_POINT ( 'NONE',  ( 0.0000000000000000000, 4.237137984225425491E-17, -0.1120000000000000162 ) ) ;
#181 = VERTEX_POINT ( 'NONE', #280 ) ;
#182 = AXIS2_PLACEMENT_3D ( 'NONE', #7, #113, #54 ) ;
#183 = AXIS2_PLACEMENT_3D ( 'NONE', #180, #73, #241 ) ;
#184 = VECTOR ( 'NONE', #45, 100.0000000000000142 ) ;
#185 = LOCAL_TIME ( 7, 13, 17.00000000000000000, #58 ) ;
#186 = AXIS2_PLACEMENT_3D ( 'NONE', #9, #233, #163 ) ;
#187 = EDGE_LOOP ( 'NONE', ( #27, #144, #202 ) ) ;
#188 = CC_DESIGN_SECURITY_CLASSIFICATION ( #231, ( #284 ) ) ;
#189 = DIRECTION ( 'NONE',  ( 0.0000000000000000000, -3.061515884555941666E-16, 1.000000000000000000 ) ) ;
#190 = LINE ( 'NONE', #42, #97 ) ;
#191 = ADVANCED_FACE ( 'NONE', ( #85 ), #65, .T. ) ;
#192 = DIRECTION ( 'NONE',  ( -0.0000000000000000000, 3.061515884555943146E-16, -1.000000000000000000 ) ) ;
#193 =( GEOMETRIC_REPRESENTATION_CONTEXT ( 3 ) GLOBAL_UNCERTAINTY_ASSIGNED_CONTEXT ( ( #196 ) ) GLOBAL_UNIT_ASSIGNED_CONTEXT ( ( #290, #64, #253 ) ) REPRESENTATION_CONTEXT ( 'NONE', 'WORKASPACE' ) );
#194 = VERTEX_POINT ( 'NONE', #125 ) ;
#195 = AXIS2_PLACEMENT_3D ( 'NONE', #259, #68, #199 ) ;
#196 = UNCERTAINTY_MEASURE_WITH_UNIT (LENGTH_MEASURE( 1.000000000000000082E-05 ), #290, 'distance_accuracy_value', 'NONE');
#197 = COORDINATED_UNIVERSAL_TIME_OFFSET ( 5, 0, .BEHIND. ) ;
#198 = DIRECTION ( 'NONE',  ( 1.000000000000000000, 0.0000000000000000000, -0.0000000000000000000 ) ) ;
#199 = DIRECTION ( 'NONE',  ( 0.0000000000000000000, 1.000000000000000000, 3.122502256758250798E-16 ) ) ;
#200 = VECTOR ( 'NONE', #192, 100.0000000000000000 ) ;
#201 = EDGE_LOOP ( 'NONE', ( #224, #154, #243 ) ) ;
#202 = ORIENTED_EDGE ( 'NONE', *, *, #263, .T. ) ;
#203 = AXIS2_PLACEMENT_3D ( 'NONE', #8, #189, #30 ) ;
#204 = DATE_TIME_ROLE ( 'classification_date' ) ;
#205 = CARTESIAN_POINT ( 'NONE',  ( 0.0000000000000000000, -1.249342602211068930E-17, 0.06720797387050891913 ) ) ;
#206 = APPROVAL_ROLE ( '' ) ;
#207 = CC_DESIGN_PERSON_AND_ORGANIZATION_ASSIGNMENT ( #79, #230, ( #87 ) ) ;
#208 = CIRCLE ( 'NONE', #173, 32.54100000000001103 ) ;
#209 = ORIENTED_EDGE ( 'NONE', *, *, #76, .F. ) ;
#210 = APPROVAL_PERSON_ORGANIZATION ( #140, #298, #206 ) ;
#211 = LINE ( 'NONE', #179, #184 ) ;
#212 = AXIS2_PLACEMENT_3D ( 'NONE', #47, #242, #129 ) ;
#213 = CARTESIAN_POINT ( 'NONE',  ( 0.0000000000000000000, -5.996340774213705049E-15, 0.08798214088444611392 ) ) ;
#214 = CONICAL_SURFACE ( 'NONE', #273, 1.270000000000000018, 0.7658793621395362239 ) ;
#215 = ORIENTED_EDGE ( 'NONE', *, *, #167, .T. ) ;
#216 = DIRECTION ( 'NONE',  ( 0.0000000000000000000, 1.000000000000000000, 3.073328992872295874E-16 ) ) ;
#217 = ADVANCED_FACE ( 'NONE', ( #247 ), #74, .T. ) ;
#218 = CC_DESIGN_PERSON_AND_ORGANIZATION_ASSIGNMENT ( #235, #283, ( #284 ) ) ;
#219 = FACE_OUTER_BOUND ( 'NONE', #170, .T. ) ;
#220 = DIRECTION ( 'NONE',  ( 1.000000000000000000, 1.224646799147353207E-16, 3.749275628560213616E-32 ) ) ;
#221 = DIRECTION ( 'NONE',  ( 1.000000000000000000, 0.0000000000000000000, -0.0000000000000000000 ) ) ;
#222 = CIRCLE ( 'NONE', #83, 32.54100000000001103 ) ;
#223 = ORIENTED_EDGE ( 'NONE', *, *, #40, .F. ) ;
#224 = ORIENTED_EDGE ( 'NONE', *, *, #149, .F. ) ;
#225 = AXIS2_PLACEMENT_3D ( 'NONE', #18, #70, #16 ) ;
#226 = SHAPE_DEFINITION_REPRESENTATION ( #94, #236 ) ;
#227 = EDGE_LOOP ( 'NONE', ( #137, #279, #240, #69 ) ) ;
#228 = APPROVAL_STATUS ( 'not_yet_approved' ) ;
#229 = CARTESIAN_POINT ( 'NONE',  ( 0.0000000000000000000, 1.270000000000000018, 0.06720797387050930771 ) ) ;
#230 = PERSON_AND_ORGANIZATION_ROLE ( 'creator' ) ;
#231 = SECURITY_CLASSIFICATION ( '', '', #246 ) ;
#232 = PERSON_AND_ORGANIZATION ( #110, #77 ) ;
#233 = DIRECTION ( 'NONE',  ( 0.0000000000000000000, -3.061515884556352860E-16, 1.000000000000000000 ) ) ;
#234 = APPLICATION_CONTEXT ( 'configuration controlled 3d designs of mechanical parts and assemblies' ) ;
#235 = PERSON_AND_ORGANIZATION ( #110, #77 ) ;
#236 = ADVANCED_BREP_SHAPE_REPRESENTATION ( '20139-E0W', ( #146, #53 ), #193 ) ;
#237 = CARTESIAN_POINT ( 'NONE',  ( 1.555301434917138827E-16, -1.270000000000000018, -0.1120000000000004048 ) ) ;
#238 = CC_DESIGN_APPROVAL ( #66, ( #87 ) ) ;
#239 = AXIS2_PLACEMENT_3D ( 'NONE', #62, #37, #11 ) ;
#240 = ORIENTED_EDGE ( 'NONE', *, *, #99, .T. ) ;
#241 = DIRECTION ( 'NONE',  ( 0.0000000000000000000, 1.000000000000000000, 3.073328992872295874E-16 ) ) ;
#242 = DIRECTION ( 'NONE',  ( -0.0000000000000000000, 3.061515884555943146E-16, -1.000000000000000000 ) ) ;
#243 = ORIENTED_EDGE ( 'NONE', *, *, #138, .T. ) ;
#244 = CARTESIAN_POINT ( 'NONE',  ( 0.0000000000000000000, 1.270000000000000018, 0.06720797387050930771 ) ) ;
#245 = DIRECTION ( 'NONE',  ( 0.0000000000000000000, 0.6931710870531886393, -0.7207730877838744998 ) ) ;
#246 = SECURITY_CLASSIFICATION_LEVEL ( 'unclassified' ) ;
#247 = FACE_OUTER_BOUND ( 'NONE', #35, .T. ) ;
#248 = PERSON_AND_ORGANIZATION_ROLE ( 'classification_officer' ) ;
#249 = EDGE_CURVE ( 'NONE', #171, #98, #190, .T. ) ;
#250 = APPLICATION_CONTEXT ( 'configuration controlled 3d designs of mechanical parts and assemblies' ) ;
#251 = CALENDAR_DATE ( 2019, 16, 7 ) ;
#252 = EDGE_CURVE ( 'NONE', #19, #161, #123, .T. ) ;
#253 =( NAMED_UNIT ( * ) SI_UNIT ( $, .STERADIAN. ) SOLID_ANGLE_UNIT ( ) );
#254 = LINE ( 'NONE', #275, #33 ) ;
#255 = ORIENTED_EDGE ( 'NONE', *, *, #76, .T. ) ;
#256 = ORIENTED_EDGE ( 'NONE', *, *, #160, .T. ) ;
#257 = AXIS2_PLACEMENT_3D ( 'NONE', #127, #198, #151 ) ;
#258 = COORDINATED_UNIVERSAL_TIME_OFFSET ( 5, 0, .BEHIND. ) ;
#259 = CARTESIAN_POINT ( 'NONE',  ( 0.0000000000000000000, 4.237137984225431038E-17, -0.1120000000000002105 ) ) ;
#260 = DIRECTION ( 'NONE',  ( -1.224646799147353454E-16, 1.000000000000000000, 0.0000000000000000000 ) ) ;
#261 = DATE_AND_TIME ( #12, #156 ) ;
#262 = ORIENTED_EDGE ( 'NONE', *, *, #99, .F. ) ;
#263 = EDGE_CURVE ( 'NONE', #171, #2, #269, .T. ) ;
#264 = DIRECTION ( 'NONE',  ( -0.0000000000000000000, 3.061515884556352860E-16, -1.000000000000000000 ) ) ;
#265 = DATE_TIME_ROLE ( 'creation_date' ) ;
#266 = APPROVAL_PERSON_ORGANIZATION ( #10, #66, #135 ) ;
#267 = CONICAL_SURFACE ( 'NONE', #126, 1.250000000000000888, 0.7853981633974480570 ) ;
#268 = AXIS2_PLACEMENT_3D ( 'NONE', #213, #60, #63 ) ;
#269 = CIRCLE ( 'NONE', #268, 1.250021379577356706 ) ;
#270 = PLANE ( 'NONE',  #34 ) ;
#271 = DIRECTION ( 'NONE',  ( 0.0000000000000000000, 0.0000000000000000000, 1.000000000000000000 ) ) ;
#272 = VECTOR ( 'NONE', #78, 99.99999999999998579 ) ;
#273 = AXIS2_PLACEMENT_3D ( 'NONE', #103, #264, #166 ) ;
#274 = LOCAL_TIME ( 7, 13, 17.00000000000000000, #197 ) ;
#275 = CARTESIAN_POINT ( 'NONE',  ( 0.0000000000000000000, 1.270000000000000018, -0.1119999999999996276 ) ) ;
#276 = EDGE_CURVE ( 'NONE', #98, #19, #21, .T. ) ;
#277 = CARTESIAN_POINT ( 'NONE',  ( 1.530834681365461936E-16, -1.250021379577602509, 0.08798214088444314407 ) ) ;
#278 = CYLINDRICAL_SURFACE ( 'NONE', #116, 1.270000000000000018 ) ;
#279 = ORIENTED_EDGE ( 'NONE', *, *, #138, .F. ) ;
#280 = CARTESIAN_POINT ( 'NONE',  ( 0.0000000000000000000, -4.011132305379198870E-15, 0.1119999999999954365 ) ) ;
#281 = CC_DESIGN_DATE_AND_TIME_ASSIGNMENT ( #261, #265, ( #87 ) ) ;
#282 = PERSON_AND_ORGANIZATION ( #110, #77 ) ;
#283 = PERSON_AND_ORGANIZATION_ROLE ( 'design_supplier' ) ;
#284 = PRODUCT_DEFINITION_FORMATION_WITH_SPECIFIED_SOURCE ( 'ANY', '', #112, .NOT_KNOWN. ) ;
#285 = CARTESIAN_POINT ( 'NONE',  ( 0.0000000000000000000, 3.624834807314268046E-17, -0.09200000000000101152 ) ) ;
#286 = ADVANCED_FACE ( 'NONE', ( #50 ), #278, .T. ) ;
#287 = CARTESIAN_POINT ( 'NONE',  ( 0.0000000000000000000, 0.0000000000000000000, 0.0000000000000000000 ) ) ;
#288 = CIRCLE ( 'NONE', #182, 1.270000000000000018 ) ;
#289 = MECHANICAL_CONTEXT ( 'NONE', #234, 'mechanical' ) ;
#290 =( LENGTH_UNIT ( ) NAMED_UNIT ( * ) SI_UNIT ( .CENTI., .METRE. ) );
#291 = EDGE_LOOP ( 'NONE', ( #109, #82, #67, #118 ) ) ;
#292 = ADVANCED_FACE ( 'NONE', ( #219 ), #270, .T. ) ;
#293 = CC_DESIGN_PERSON_AND_ORGANIZATION_ASSIGNMENT ( #128, #248, ( #231 ) ) ;
#294 = APPROVAL_PERSON_ORGANIZATION ( #232, #31, #104 ) ;
#295 = SPHERICAL_SURFACE ( 'NONE', #257, 32.54100000000001103 ) ;
#296 = FACE_OUTER_BOUND ( 'NONE', #174, .T. ) ;
#297 = DIRECTION ( 'NONE',  ( 8.488897530211784795E-17, -0.6931710870531880841, -0.7207730877838750549 ) ) ;
#298 = APPROVAL ( #228, 'UNSPECIFIED' ) ;
#299 = CARTESIAN_POINT ( 'NONE',  ( 0.0000000000000000000, 4.237137984225431654E-17, -0.1120000000000002105 ) ) ;
#300 = EDGE_LOOP ( 'NONE', ( #162, #223, #153, #209 ) ) ;
#301 = CARTESIAN_POINT ( 'NONE',  ( 1.555301434917138827E-16, -1.270000000000000018, -0.09200000000000140010 ) ) ;
ENDSEC;
END-ISO-10303-21;
