ISO-10303-21;
HEADER;
FILE_DESCRIPTION (( 'STEP AP203' ),
    '1' );
FILE_NAME ('TTN047584-E0W.STEP',
    '2019-05-30T15:04:06',
    ( '' ),
    ( '' ),
    'SwSTEP 2.0',
    'SolidWorks 2018',
    '' );
FILE_SCHEMA (( 'CONFIG_CONTROL_DESIGN' ));
ENDSEC;

DATA;
#1 = SHAPE_DEFINITION_REPRESENTATION ( #157, #55 ) ;
#2 = APPROVAL ( #222, 'UNSPECIFIED' ) ;
#3 = CARTESIAN_POINT ( 'NONE',  ( 0.0000000000000000000, -12.69999999999998508, -1.969999999999960894 ) ) ;
#4 = DIRECTION ( 'NONE',  ( -0.0000000000000000000, 3.061515884555943146E-16, -1.000000000000000000 ) ) ;
#5 = CARTESIAN_POINT ( 'NONE',  ( 1.530808498934189549E-15, -12.49999999999997868, -0.09478097065561762180 ) ) ;
#6 = CARTESIAN_POINT ( 'NONE',  ( 0.0000000000000000000, 1.734723475976842593E-15, -2.169999999999980389 ) ) ;
#7 = VECTOR ( 'NONE', #94, 1000.000000000000000 ) ;
#8 = CC_DESIGN_PERSON_AND_ORGANIZATION_ASSIGNMENT ( #20, #17, ( #206 ) ) ;
#9 = DIRECTION ( 'NONE',  ( 1.000000000000000000, 0.0000000000000000000, -0.0000000000000000000 ) ) ;
#10 = DIRECTION ( 'NONE',  ( 0.0000000000000000000, 1.520927702892695022E-15, 1.000000000000000000 ) ) ;
#11 = AXIS2_PLACEMENT_3D ( 'NONE', #296, #16, #72 ) ;
#12 = CARTESIAN_POINT ( 'NONE',  ( 0.0000000000000000000, 3.972378090529005805E-15, -33.45799999999998420 ) ) ;
#13 = DIRECTION ( 'NONE',  ( -1.000000000000000000, 0.0000000000000000000, 0.0000000000000000000 ) ) ;
#14 = CIRCLE ( 'NONE', #247, 12.69999999999998685 ) ;
#15 = PERSON_AND_ORGANIZATION_ROLE ( 'classification_officer' ) ;
#16 = DIRECTION ( 'NONE',  ( -0.0000000000000000000, -1.520927702892695022E-15, -1.000000000000000000 ) ) ;
#17 = PERSON_AND_ORGANIZATION_ROLE ( 'creator' ) ;
#18 = VECTOR ( 'NONE', #174, 1000.000000000000000 ) ;
#19 = DIRECTION ( 'NONE',  ( 0.0000000000000000000, -1.000000000000000000, 1.536664496436149663E-15 ) ) ;
#20 = PERSON_AND_ORGANIZATION ( #167, #255 ) ;
#21 = CALENDAR_DATE ( 2019, 30, 5 ) ;
#22 = ADVANCED_FACE ( 'NONE', ( #31 ), #131, .T. ) ;
#23 = CC_DESIGN_PERSON_AND_ORGANIZATION_ASSIGNMENT ( #50, #219, ( #256 ) ) ;
#24 = ORIENTED_EDGE ( 'NONE', *, *, #195, .F. ) ;
#25 = DIRECTION ( 'NONE',  ( -0.0000000000000000000, -1.520927702892695022E-15, -1.000000000000000000 ) ) ;
#26 = DIRECTION ( 'NONE',  ( 0.0000000000000000000, -0.7071067811865471286, 0.7071067811865479058 ) ) ;
#27 = ADVANCED_FACE ( 'NONE', ( #261 ), #208, .T. ) ;
#28 = VECTOR ( 'NONE', #35, 1000.000000000000000 ) ;
#29 = DIRECTION ( 'NONE',  ( -1.224646799147353207E-16, 1.000000000000000000, 0.0000000000000000000 ) ) ;
#30 = CC_DESIGN_APPROVAL ( #2, ( #273 ) ) ;
#31 = FACE_OUTER_BOUND ( 'NONE', #47, .T. ) ;
#32 = CARTESIAN_POINT ( 'NONE',  ( 0.0000000000000000000, 3.972378090529005805E-15, -33.45799999999998420 ) ) ;
#33 = DATE_TIME_ROLE ( 'classification_date' ) ;
#34 = AXIS2_PLACEMENT_3D ( 'NONE', #271, #4, #210 ) ;
#35 = DIRECTION ( 'NONE',  ( -0.0000000000000000000, 3.061515884555943146E-16, -1.000000000000000000 ) ) ;
#36 = LINE ( 'NONE', #3, #117 ) ;
#37 = COORDINATED_UNIVERSAL_TIME_OFFSET ( 5, 0, .BEHIND. ) ;
#38 = ORIENTED_EDGE ( 'NONE', *, *, #209, .T. ) ;
#39 = FACE_OUTER_BOUND ( 'NONE', #287, .T. ) ;
#40 = AXIS2_PLACEMENT_3D ( 'NONE', #252, #236, #86 ) ;
#41 = PERSON_AND_ORGANIZATION ( #167, #255 ) ;
#42 = ORIENTED_EDGE ( 'NONE', *, *, #300, .F. ) ;
#43 = VERTEX_POINT ( 'NONE', #220 ) ;
#44 = FACE_OUTER_BOUND ( 'NONE', #69, .T. ) ;
#45 = AXIS2_PLACEMENT_3D ( 'NONE', #32, #13, #292 ) ;
#46 = ORIENTED_EDGE ( 'NONE', *, *, #68, .F. ) ;
#47 = EDGE_LOOP ( 'NONE', ( #42, #245, #142 ) ) ;
#48 = CARTESIAN_POINT ( 'NONE',  ( 0.0000000000000000000, 2.038909016555381282E-15, -1.969999999999980433 ) ) ;
#49 = VERTEX_POINT ( 'NONE', #290 ) ;
#50 = PERSON_AND_ORGANIZATION ( #167, #255 ) ;
#51 = DIRECTION ( 'NONE',  ( -0.0000000000000000000, -1.520927702892695022E-15, -1.000000000000000000 ) ) ;
#52 = DIRECTION ( 'NONE',  ( 0.0000000000000000000, 1.000000000000000000, -1.521135647997164693E-15 ) ) ;
#53 = EDGE_LOOP ( 'NONE', ( #162, #257, #64, #106 ) ) ;
#54 = CARTESIAN_POINT ( 'NONE',  ( 0.0000000000000000000, 4.890981587276743449E-15, -0.09478097065563663437 ) ) ;
#55 = ADVANCED_BREP_SHAPE_REPRESENTATION ( 'TTN047584-E0W', ( #194, #181 ), #124 ) ;
#56 = MECHANICAL_CONTEXT ( 'NONE', #102, 'mechanical' ) ;
#57 = EDGE_LOOP ( 'NONE', ( #24, #182, #105, #185 ) ) ;
#58 = APPLICATION_PROTOCOL_DEFINITION ( 'international standard', 'config_control_design', 1994, #243 ) ;
#59 = EDGE_LOOP ( 'NONE', ( #46, #180, #136, #225 ) ) ;
#60 = CARTESIAN_POINT ( 'NONE',  ( 0.0000000000000000000, 3.972378090529005805E-15, -33.45799999999998420 ) ) ;
#61 = APPROVAL_PERSON_ORGANIZATION ( #248, #244, #148 ) ;
#62 = LINE ( 'NONE', #175, #18 ) ;
#63 = ORIENTED_EDGE ( 'NONE', *, *, #108, .T. ) ;
#64 = ORIENTED_EDGE ( 'NONE', *, *, #153, .F. ) ;
#65 = LINE ( 'NONE', #5, #7 ) ;
#66 = CIRCLE ( 'NONE', #45, 35.62800000000004985 ) ;
#67 = VERTEX_POINT ( 'NONE', #183 ) ;
#68 = EDGE_CURVE ( 'NONE', #49, #141, #212, .T. ) ;
#69 = EDGE_LOOP ( 'NONE', ( #266, #109 ) ) ;
#70 = SECURITY_CLASSIFICATION ( '', '', #294 ) ;
#71 = DIRECTION ( 'NONE',  ( 0.0000000000000000000, 1.000000000000000000, -1.526556658859591821E-15 ) ) ;
#72 = DIRECTION ( 'NONE',  ( 0.0000000000000000000, 1.000000000000000000, -1.526556658859591821E-15 ) ) ;
#73 = DIRECTION ( 'NONE',  ( 0.0000000000000000000, 1.000000000000000000, -1.536664496436149663E-15 ) ) ;
#74 =( NAMED_UNIT ( * ) SI_UNIT ( $, .STERADIAN. ) SOLID_ANGLE_UNIT ( ) );
#75 = CARTESIAN_POINT ( 'NONE',  ( 0.0000000000000000000, 12.69999999999998863, -2.169999999999995932 ) ) ;
#76 = LINE ( 'NONE', #75, #28 ) ;
#77 = ADVANCED_FACE ( 'NONE', ( #97 ), #134, .T. ) ;
#78 = DATE_AND_TIME ( #213, #284 ) ;
#79 = APPROVAL_DATE_TIME ( #159, #233 ) ;
#80 = ADVANCED_FACE ( 'NONE', ( #39 ), #152, .T. ) ;
#81 = FACE_OUTER_BOUND ( 'NONE', #59, .T. ) ;
#82 = EDGE_LOOP ( 'NONE', ( #107, #63, #274, #282 ) ) ;
#83 = VECTOR ( 'NONE', #197, 1000.000000000000000 ) ;
#84 = AXIS2_PLACEMENT_3D ( 'NONE', #178, #10, #224 ) ;
#85 = CONICAL_SURFACE ( 'NONE', #104, 12.69999999999998685, 0.7853981633974492782 ) ;
#86 = DIRECTION ( 'NONE',  ( 0.0000000000000000000, 1.000000000000000000, -1.519590446475748350E-15 ) ) ;
#87 = DIRECTION ( 'NONE',  ( 0.0000000000000000000, 1.000000000000000000, -1.519590446475748350E-15 ) ) ;
#88 = CARTESIAN_POINT ( 'NONE',  ( 0.0000000000000000000, 12.49999999999998934, -0.09478097065565564694 ) ) ;
#89 = ADVANCED_FACE ( 'NONE', ( #81 ), #85, .T. ) ;
#90 = CIRCLE ( 'NONE', #95, 12.49999999999998401 ) ;
#91 = DIRECTION ( 'NONE',  ( 0.0000000000000000000, 1.000000000000000000, -1.521135647997164693E-15 ) ) ;
#92 = APPROVAL_PERSON_ORGANIZATION ( #41, #2, #267 ) ;
#93 = CARTESIAN_POINT ( 'NONE',  ( 1.543054966925662906E-15, -12.49999999999997868, -0.09478097065561762180 ) ) ;
#94 = DIRECTION ( 'NONE',  ( 8.659560562354947649E-17, -0.7071067811865497932, -0.7071067811865452413 ) ) ;
#95 = AXIS2_PLACEMENT_3D ( 'NONE', #54, #25, #91 ) ;
#96 = DIRECTION ( 'NONE',  ( 0.0000000000000000000, 1.000000000000000000, -1.521135647997164693E-15 ) ) ;
#97 = FACE_OUTER_BOUND ( 'NONE', #231, .T. ) ;
#98 = AXIS2_PLACEMENT_3D ( 'NONE', #12, #293, #154 ) ;
#99 = CARTESIAN_POINT ( 'NONE',  ( 0.0000000000000000000, 4.890981587276743449E-15, -0.09478097065563663437 ) ) ;
#100 = ORIENTED_EDGE ( 'NONE', *, *, #195, .T. ) ;
#101 = ORIENTED_EDGE ( 'NONE', *, *, #276, .F. ) ;
#102 = APPLICATION_CONTEXT ( 'configuration controlled 3d designs of mechanical parts and assemblies' ) ;
#103 = COORDINATED_UNIVERSAL_TIME_OFFSET ( 5, 0, .BEHIND. ) ;
#104 = AXIS2_PLACEMENT_3D ( 'NONE', #163, #188, #19 ) ;
#105 = ORIENTED_EDGE ( 'NONE', *, *, #168, .T. ) ;
#106 = ORIENTED_EDGE ( 'NONE', *, *, #295, .F. ) ;
#107 = ORIENTED_EDGE ( 'NONE', *, *, #126, .F. ) ;
#108 = EDGE_CURVE ( 'NONE', #43, #161, #254, .T. ) ;
#109 = ORIENTED_EDGE ( 'NONE', *, *, #68, .T. ) ;
#110 = DESIGN_CONTEXT ( 'detailed design', #243, 'design' ) ;
#111 = DIRECTION ( 'NONE',  ( -0.0000000000000000000, 3.061515884555943146E-16, -1.000000000000000000 ) ) ;
#112 = ORIENTED_EDGE ( 'NONE', *, *, #230, .F. ) ;
#113 = AXIS2_PLACEMENT_3D ( 'NONE', #146, #196, #263 ) ;
#114 = CYLINDRICAL_SURFACE ( 'NONE', #301, 12.69999999999998685 ) ;
#115 = COORDINATED_UNIVERSAL_TIME_OFFSET ( 5, 0, .BEHIND. ) ;
#116 = AXIS2_PLACEMENT_3D ( 'NONE', #60, #9, #268 ) ;
#117 = VECTOR ( 'NONE', #26, 1000.000000000000000 ) ;
#118 = CC_DESIGN_DATE_AND_TIME_ASSIGNMENT ( #269, #33, ( #70 ) ) ;
#119 = CARTESIAN_POINT ( 'NONE',  ( 0.0000000000000000000, 2.038909016555381282E-15, -1.969999999999980433 ) ) ;
#120 = FACE_OUTER_BOUND ( 'NONE', #53, .T. ) ;
#121 = DATE_AND_TIME ( #21, #155 ) ;
#122 =( LENGTH_UNIT ( ) NAMED_UNIT ( * ) SI_UNIT ( .MILLI., .METRE. ) );
#123 = ORIENTED_EDGE ( 'NONE', *, *, #190, .F. ) ;
#124 =( GEOMETRIC_REPRESENTATION_CONTEXT ( 3 ) GLOBAL_UNCERTAINTY_ASSIGNED_CONTEXT ( ( #272 ) ) GLOBAL_UNIT_ASSIGNED_CONTEXT ( ( #122, #250, #74 ) ) REPRESENTATION_CONTEXT ( 'NONE', 'WORKASPACE' ) );
#125 = DIRECTION ( 'NONE',  ( -0.0000000000000000000, -1.520927702892695022E-15, -1.000000000000000000 ) ) ;
#126 = EDGE_CURVE ( 'NONE', #43, #217, #277, .T. ) ;
#127 = ADVANCED_FACE ( 'NONE', ( #264 ), #258, .T. ) ;
#128 = CONICAL_SURFACE ( 'NONE', #176, 12.49999999999998401, 0.7853981633974499443 ) ;
#129 = LOCAL_TIME ( 11, 4, 6.000000000000000000, #259 ) ;
#130 = AXIS2_PLACEMENT_3D ( 'NONE', #99, #125, #96 ) ;
#131 = SPHERICAL_SURFACE ( 'NONE', #98, 35.62800000000004985 ) ;
#132 = CIRCLE ( 'NONE', #130, 12.49999999999998401 ) ;
#133 = VERTEX_POINT ( 'NONE', #280 ) ;
#134 = SPHERICAL_SURFACE ( 'NONE', #116, 35.62800000000004985 ) ;
#135 = CALENDAR_DATE ( 2019, 30, 5 ) ;
#136 = ORIENTED_EDGE ( 'NONE', *, *, #153, .T. ) ;
#137 = CC_DESIGN_PERSON_AND_ORGANIZATION_ASSIGNMENT ( #229, #150, ( #273 ) ) ;
#138 = VERTEX_POINT ( 'NONE', #88 ) ;
#139 = CARTESIAN_POINT ( 'NONE',  ( 0.0000000000000000000, 9.380484670279409088E-16, -2.169999999999999929 ) ) ;
#140 = EDGE_CURVE ( 'NONE', #141, #49, #164, .T. ) ;
#141 = VERTEX_POINT ( 'NONE', #177 ) ;
#142 = ORIENTED_EDGE ( 'NONE', *, *, #209, .F. ) ;
#143 = DIRECTION ( 'NONE',  ( 1.000000000000000000, 1.224646799147353207E-16, 3.749275628560213616E-32 ) ) ;
#144 = DIRECTION ( 'NONE',  ( -0.0000000000000000000, -1.520927702892695022E-15, -1.000000000000000000 ) ) ;
#145 = COORDINATED_UNIVERSAL_TIME_OFFSET ( 5, 0, .BEHIND. ) ;
#146 = CARTESIAN_POINT ( 'NONE',  ( 0.0000000000000000000, 9.380484670279415004E-16, -2.170000000000001705 ) ) ;
#147 = DIRECTION ( 'NONE',  ( 0.0000000000000000000, 1.000000000000000000, -1.521135647997164693E-15 ) ) ;
#148 = APPROVAL_ROLE ( '' ) ;
#149 = CARTESIAN_POINT ( 'NONE',  ( 0.0000000000000000000, 4.890981587276743449E-15, -0.09478097065563663437 ) ) ;
#150 = PERSON_AND_ORGANIZATION_ROLE ( 'creator' ) ;
#151 = DIRECTION ( 'NONE',  ( -0.0000000000000000000, -1.520927702892695022E-15, -1.000000000000000000 ) ) ;
#152 = CONICAL_SURFACE ( 'NONE', #84, 12.69999999999998685, 0.7853981633974492782 ) ;
#153 = EDGE_CURVE ( 'NONE', #67, #217, #14, .T. ) ;
#154 = DIRECTION ( 'NONE',  ( 0.0000000000000000000, 1.000000000000000000, 3.895191368534421812E-16 ) ) ;
#155 = LOCAL_TIME ( 11, 4, 6.000000000000000000, #37 ) ;
#156 = PERSON_AND_ORGANIZATION_ROLE ( 'design_supplier' ) ;
#157 = PRODUCT_DEFINITION_SHAPE ( 'NONE', 'NONE',  #206 ) ;
#158 = AXIS2_PLACEMENT_3D ( 'NONE', #281, #143, #29 ) ;
#159 = DATE_AND_TIME ( #135, #226 ) ;
#160 = CARTESIAN_POINT ( 'NONE',  ( 1.555301434917137052E-15, -12.69999999999998508, -2.170000000000003926 ) ) ;
#161 = VERTEX_POINT ( 'NONE', #285 ) ;
#162 = ORIENTED_EDGE ( 'NONE', *, *, #230, .T. ) ;
#163 = CARTESIAN_POINT ( 'NONE',  ( 0.0000000000000000000, 2.038909016555381282E-15, -1.969999999999980433 ) ) ;
#164 = CIRCLE ( 'NONE', #171, 12.49999999999998757 ) ;
#165 = PERSON_AND_ORGANIZATION ( #167, #255 ) ;
#166 = CC_DESIGN_PERSON_AND_ORGANIZATION_ASSIGNMENT ( #221, #15, ( #70 ) ) ;
#167 = PERSON ( 'UNSPECIFIED', 'UNSPECIFIED', 'UNSPECIFIED', ('UNSPECIFIED'), ('UNSPECIFIED'), ('UNSPECIFIED') ) ;
#168 = EDGE_CURVE ( 'NONE', #138, #161, #62, .T. ) ;
#169 = ORIENTED_EDGE ( 'NONE', *, *, #201, .F. ) ;
#170 = CLOSED_SHELL ( 'NONE', ( #22, #27, #89, #234, #127, #80, #228, #172, #77 ) ) ;
#171 = AXIS2_PLACEMENT_3D ( 'NONE', #6, #215, #71 ) ;
#172 = ADVANCED_FACE ( 'NONE', ( #200 ), #128, .T. ) ;
#173 = DIRECTION ( 'NONE',  ( 0.0000000000000000000, 1.000000000000000000, 3.073328992872299326E-16 ) ) ;
#174 = DIRECTION ( 'NONE',  ( 0.0000000000000000000, 0.7071067811865475727, -0.7071067811865474617 ) ) ;
#175 = CARTESIAN_POINT ( 'NONE',  ( 0.0000000000000000000, 12.49999999999998934, -0.09478097065565564694 ) ) ;
#176 = AXIS2_PLACEMENT_3D ( 'NONE', #262, #242, #52 ) ;
#177 = CARTESIAN_POINT ( 'NONE',  ( 0.0000000000000000000, -12.49999999999998579, -2.169999999999961293 ) ) ;
#178 = CARTESIAN_POINT ( 'NONE',  ( 0.0000000000000000000, 2.038909016555381282E-15, -1.969999999999980433 ) ) ;
#179 = DATE_TIME_ROLE ( 'creation_date' ) ;
#180 = ORIENTED_EDGE ( 'NONE', *, *, #201, .T. ) ;
#181 = AXIS2_PLACEMENT_3D ( 'NONE', #289, #186, #297 ) ;
#182 = ORIENTED_EDGE ( 'NONE', *, *, #276, .T. ) ;
#183 = CARTESIAN_POINT ( 'NONE',  ( 0.0000000000000000000, 12.69999999999998863, -1.969999999999999973 ) ) ;
#184 = APPROVAL_STATUS ( 'not_yet_approved' ) ;
#185 = ORIENTED_EDGE ( 'NONE', *, *, #108, .F. ) ;
#186 = DIRECTION ( 'NONE',  ( 0.0000000000000000000, 0.0000000000000000000, 1.000000000000000000 ) ) ;
#187 = CIRCLE ( 'NONE', #192, 12.69999999999998330 ) ;
#188 = DIRECTION ( 'NONE',  ( 0.0000000000000000000, 1.520927702892695022E-15, 1.000000000000000000 ) ) ;
#189 = VERTEX_POINT ( 'NONE', #93 ) ;
#190 = EDGE_CURVE ( 'NONE', #133, #189, #249, .T. ) ;
#191 = CIRCLE ( 'NONE', #283, 12.69999999999998685 ) ;
#192 = AXIS2_PLACEMENT_3D ( 'NONE', #286, #237, #87 ) ;
#193 = LINE ( 'NONE', #198, #83 ) ;
#194 = MANIFOLD_SOLID_BREP ( 'TTN047587-1-solid1', #170 ) ;
#195 = EDGE_CURVE ( 'NONE', #189, #43, #65, .T. ) ;
#196 = DIRECTION ( 'NONE',  ( -0.0000000000000000000, 3.061515884555943146E-16, -1.000000000000000000 ) ) ;
#197 = DIRECTION ( 'NONE',  ( 8.659560562354941486E-17, 0.7071067811865493491, 0.7071067811865456854 ) ) ;
#198 = CARTESIAN_POINT ( 'NONE',  ( 1.555301434917137052E-15, 12.69999999999998863, -1.969999999999999973 ) ) ;
#199 = AXIS2_PLACEMENT_3D ( 'NONE', #149, #151, #147 ) ;
#200 = FACE_OUTER_BOUND ( 'NONE', #57, .T. ) ;
#201 = EDGE_CURVE ( 'NONE', #49, #67, #193, .T. ) ;
#202 = APPROVAL_ROLE ( '' ) ;
#203 = CALENDAR_DATE ( 2019, 30, 5 ) ;
#204 = CC_DESIGN_APPROVAL ( #244, ( #206 ) ) ;
#205 = APPROVAL_PERSON_ORGANIZATION ( #165, #233, #202 ) ;
#206 = PRODUCT_DEFINITION ( 'UNKNOWN', '', #273, #110 ) ;
#207 = ORIENTED_EDGE ( 'NONE', *, *, #168, .F. ) ;
#208 = CONICAL_SURFACE ( 'NONE', #199, 12.49999999999998401, 0.7853981633974499443 ) ;
#209 = EDGE_CURVE ( 'NONE', #138, #189, #90, .T. ) ;
#210 = DIRECTION ( 'NONE',  ( 0.0000000000000000000, 1.000000000000000000, 3.073328992872299326E-16 ) ) ;
#211 = DIRECTION ( 'NONE',  ( 0.0000000000000000000, 1.000000000000000000, -1.536664496436149663E-15 ) ) ;
#212 = CIRCLE ( 'NONE', #11, 12.49999999999998757 ) ;
#213 = CALENDAR_DATE ( 2019, 30, 5 ) ;
#214 = CALENDAR_DATE ( 2019, 30, 5 ) ;
#215 = DIRECTION ( 'NONE',  ( -0.0000000000000000000, -1.520927702892695022E-15, -1.000000000000000000 ) ) ;
#216 = CC_DESIGN_PERSON_AND_ORGANIZATION_ASSIGNMENT ( #278, #156, ( #273 ) ) ;
#217 = VERTEX_POINT ( 'NONE', #241 ) ;
#218 = VECTOR ( 'NONE', #111, 1000.000000000000000 ) ;
#219 = PERSON_AND_ORGANIZATION_ROLE ( 'design_owner' ) ;
#220 = CARTESIAN_POINT ( 'NONE',  ( 1.555301434917136658E-15, -12.69999999999997797, -0.2947809706556172027 ) ) ;
#221 = PERSON_AND_ORGANIZATION ( #167, #255 ) ;
#222 = APPROVAL_STATUS ( 'not_yet_approved' ) ;
#223 = CC_DESIGN_SECURITY_CLASSIFICATION ( #70, ( #273 ) ) ;
#224 = DIRECTION ( 'NONE',  ( 0.0000000000000000000, -1.000000000000000000, 1.536664496436149663E-15 ) ) ;
#225 = ORIENTED_EDGE ( 'NONE', *, *, #270, .F. ) ;
#226 = LOCAL_TIME ( 11, 4, 6.000000000000000000, #145 ) ;
#227 = EDGE_CURVE ( 'NONE', #217, #67, #191, .T. ) ;
#228 = ADVANCED_FACE ( 'NONE', ( #44 ), #279, .T. ) ;
#229 = PERSON_AND_ORGANIZATION ( #167, #255 ) ;
#230 = EDGE_CURVE ( 'NONE', #161, #43, #187, .T. ) ;
#231 = EDGE_LOOP ( 'NONE', ( #123, #298, #101 ) ) ;
#232 = ORIENTED_EDGE ( 'NONE', *, *, #227, .T. ) ;
#233 = APPROVAL ( #184, 'UNSPECIFIED' ) ;
#234 = ADVANCED_FACE ( 'NONE', ( #120 ), #114, .T. ) ;
#235 = EDGE_LOOP ( 'NONE', ( #38, #100, #112, #207 ) ) ;
#236 = DIRECTION ( 'NONE',  ( -0.0000000000000000000, -1.520927702892695022E-15, -1.000000000000000000 ) ) ;
#237 = DIRECTION ( 'NONE',  ( -0.0000000000000000000, -1.520927702892695022E-15, -1.000000000000000000 ) ) ;
#238 = DIRECTION ( 'NONE',  ( -0.0000000000000000000, 3.061515884555943146E-16, -1.000000000000000000 ) ) ;
#239 = LOCAL_TIME ( 11, 4, 6.000000000000000000, #115 ) ;
#240 = ORIENTED_EDGE ( 'NONE', *, *, #270, .T. ) ;
#241 = CARTESIAN_POINT ( 'NONE',  ( 1.555301434917137052E-15, -12.69999999999998508, -1.969999999999960894 ) ) ;
#242 = DIRECTION ( 'NONE',  ( -0.0000000000000000000, -1.520927702892695022E-15, -1.000000000000000000 ) ) ;
#243 = APPLICATION_CONTEXT ( 'configuration controlled 3d designs of mechanical parts and assemblies' ) ;
#244 = APPROVAL ( #246, 'UNSPECIFIED' ) ;
#245 = ORIENTED_EDGE ( 'NONE', *, *, #190, .T. ) ;
#246 = APPROVAL_STATUS ( 'not_yet_approved' ) ;
#247 = AXIS2_PLACEMENT_3D ( 'NONE', #48, #144, #73 ) ;
#248 = PERSON_AND_ORGANIZATION ( #167, #255 ) ;
#249 = CIRCLE ( 'NONE', #158, 35.62800000000004985 ) ;
#250 =( NAMED_UNIT ( * ) PLANE_ANGLE_UNIT ( ) SI_UNIT ( $, .RADIAN. ) );
#251 = DATE_AND_TIME ( #203, #129 ) ;
#252 = CARTESIAN_POINT ( 'NONE',  ( 0.0000000000000000000, 4.586796046698204760E-15, -0.2947809706556365206 ) ) ;
#253 = PRODUCT_RELATED_PRODUCT_CATEGORY ( 'detail', '', ( #256 ) ) ;
#254 = CIRCLE ( 'NONE', #40, 12.69999999999998330 ) ;
#255 = ORGANIZATION ( 'UNSPECIFIED', 'UNSPECIFIED', '' ) ;
#256 = PRODUCT ( 'TTN047584-E0W', 'TTN047584-E0W', '', ( #56 ) ) ;
#257 = ORIENTED_EDGE ( 'NONE', *, *, #126, .T. ) ;
#258 = CYLINDRICAL_SURFACE ( 'NONE', #34, 12.69999999999998685 ) ;
#259 = COORDINATED_UNIVERSAL_TIME_OFFSET ( 5, 0, .BEHIND. ) ;
#260 = CC_DESIGN_DATE_AND_TIME_ASSIGNMENT ( #251, #179, ( #206 ) ) ;
#261 = FACE_OUTER_BOUND ( 'NONE', #235, .T. ) ;
#262 = CARTESIAN_POINT ( 'NONE',  ( 0.0000000000000000000, 4.890981587276743449E-15, -0.09478097065563663437 ) ) ;
#263 = DIRECTION ( 'NONE',  ( 0.0000000000000000000, 1.000000000000000000, 3.061515884555943146E-16 ) ) ;
#264 = FACE_OUTER_BOUND ( 'NONE', #82, .T. ) ;
#265 = APPROVAL_DATE_TIME ( #78, #244 ) ;
#266 = ORIENTED_EDGE ( 'NONE', *, *, #140, .T. ) ;
#267 = APPROVAL_ROLE ( '' ) ;
#268 = DIRECTION ( 'NONE',  ( 0.0000000000000000000, 1.000000000000000000, 3.895191368534421812E-16 ) ) ;
#269 = DATE_AND_TIME ( #214, #239 ) ;
#270 = EDGE_CURVE ( 'NONE', #141, #217, #36, .T. ) ;
#271 = CARTESIAN_POINT ( 'NONE',  ( 0.0000000000000000000, 9.380484670279409088E-16, -2.169999999999999929 ) ) ;
#272 = UNCERTAINTY_MEASURE_WITH_UNIT (LENGTH_MEASURE( 1.000000000000000082E-05 ), #122, 'distance_accuracy_value', 'NONE');
#273 = PRODUCT_DEFINITION_FORMATION_WITH_SPECIFIED_SOURCE ( 'ANY', '', #256, .NOT_KNOWN. ) ;
#274 = ORIENTED_EDGE ( 'NONE', *, *, #295, .T. ) ;
#275 = ORIENTED_EDGE ( 'NONE', *, *, #140, .F. ) ;
#276 = EDGE_CURVE ( 'NONE', #189, #138, #132, .T. ) ;
#277 = LINE ( 'NONE', #160, #218 ) ;
#278 = PERSON_AND_ORGANIZATION ( #167, #255 ) ;
#279 = PLANE ( 'NONE',  #113 ) ;
#280 = CARTESIAN_POINT ( 'NONE',  ( 0.0000000000000000000, -4.753604894965824652E-15, 2.170000000000060769 ) ) ;
#281 = CARTESIAN_POINT ( 'NONE',  ( 0.0000000000000000000, 3.972378090529005805E-15, -33.45799999999998420 ) ) ;
#282 = ORIENTED_EDGE ( 'NONE', *, *, #227, .F. ) ;
#283 = AXIS2_PLACEMENT_3D ( 'NONE', #119, #51, #211 ) ;
#284 = LOCAL_TIME ( 11, 4, 6.000000000000000000, #103 ) ;
#285 = CARTESIAN_POINT ( 'NONE',  ( 0.0000000000000000000, 12.69999999999998863, -0.2947809706556557829 ) ) ;
#286 = CARTESIAN_POINT ( 'NONE',  ( 0.0000000000000000000, 4.586796046698204760E-15, -0.2947809706556365206 ) ) ;
#287 = EDGE_LOOP ( 'NONE', ( #169, #275, #240, #232 ) ) ;
#288 = APPLICATION_PROTOCOL_DEFINITION ( 'international standard', 'config_control_design', 1994, #102 ) ;
#289 = CARTESIAN_POINT ( 'NONE',  ( 0.0000000000000000000, 0.0000000000000000000, 0.0000000000000000000 ) ) ;
#290 = CARTESIAN_POINT ( 'NONE',  ( 1.543054966925663301E-15, 12.49999999999998934, -2.169999999999999485 ) ) ;
#291 = APPROVAL_DATE_TIME ( #121, #2 ) ;
#292 = DIRECTION ( 'NONE',  ( 0.0000000000000000000, 0.0000000000000000000, 1.000000000000000000 ) ) ;
#293 = DIRECTION ( 'NONE',  ( 1.000000000000000000, 0.0000000000000000000, -0.0000000000000000000 ) ) ;
#294 = SECURITY_CLASSIFICATION_LEVEL ( 'unclassified' ) ;
#295 = EDGE_CURVE ( 'NONE', #161, #67, #76, .T. ) ;
#296 = CARTESIAN_POINT ( 'NONE',  ( 0.0000000000000000000, 1.734723475976842593E-15, -2.169999999999980389 ) ) ;
#297 = DIRECTION ( 'NONE',  ( 1.000000000000000000, 0.0000000000000000000, 0.0000000000000000000 ) ) ;
#298 = ORIENTED_EDGE ( 'NONE', *, *, #300, .T. ) ;
#299 = CC_DESIGN_APPROVAL ( #233, ( #70 ) ) ;
#300 = EDGE_CURVE ( 'NONE', #133, #138, #66, .T. ) ;
#301 = AXIS2_PLACEMENT_3D ( 'NONE', #139, #238, #173 ) ;
ENDSEC;
END-ISO-10303-21;
