ISO-10303-21;
HEADER;
FILE_DESCRIPTION (( 'STEP AP203' ),
    '1' );
FILE_NAME ('Web Model 41021MX_43209.step',
    '2017-10-30T12:54:01',
    ( '' ),
    ( '' ),
    'SwSTEP 2.0',
    'SolidWorks 2016',
    '' );
FILE_SCHEMA (( 'CONFIG_CONTROL_DESIGN' ));
ENDSEC;

DATA;
#1 = PLANE ( 'NONE',  #236 ) ;
#2 = LINE ( 'NONE', #125, #54 ) ;
#3 = DATE_TIME_ROLE ( 'classification_date' ) ;
#4 = DIRECTION ( 'NONE',  ( -0.0000000000000000000, -0.0000000000000000000, -1.000000000000000000 ) ) ;
#5 = FACE_OUTER_BOUND ( 'NONE', #102, .T. ) ;
#6 = DIRECTION ( 'NONE',  ( 1.000000000000000000, 6.938893903907228400E-017, 0.0000000000000000000 ) ) ;
#7 = EDGE_CURVE ( 'NONE', #50, #132, #46, .T. ) ;
#8 = ORIENTED_EDGE ( 'NONE', *, *, #66, .F. ) ;
#9 = ADVANCED_FACE ( 'NONE', ( #5 ), #94, .F. ) ;
#10 = ORIENTED_EDGE ( 'NONE', *, *, #21, .T. ) ;
#11 = ORIENTED_EDGE ( 'NONE', *, *, #143, .F. ) ;
#12 = VERTEX_POINT ( 'NONE', #187 ) ;
#13 = APPLICATION_CONTEXT ( 'configuration controlled 3d designs of mechanical parts and assemblies' ) ;
#14 = AXIS2_PLACEMENT_3D ( 'NONE', #23, #190, #6 ) ;
#15 = VERTEX_POINT ( 'NONE', #209 ) ;
#16 = EDGE_CURVE ( 'NONE', #132, #24, #237, .T. ) ;
#17 = DIRECTION ( 'NONE',  ( -1.000000000000000000, -6.938893903907228400E-017, 0.0000000000000000000 ) ) ;
#18 = CARTESIAN_POINT ( 'NONE',  ( 12.49999999999999600, 6.250000000000000000, -4.750000000000000000 ) ) ;
#19 = AXIS2_PLACEMENT_3D ( 'NONE', #228, #149, #166 ) ;
#20 = CARTESIAN_POINT ( 'NONE',  ( 12.49999999999999600, -6.249999999999998200, -4.750000000000000000 ) ) ;
#21 = EDGE_CURVE ( 'NONE', #154, #12, #167, .T. ) ;
#22 = CARTESIAN_POINT ( 'NONE',  ( 12.49999999999999600, 6.250000000000000000, 4.750000000000000000 ) ) ;
#23 = CARTESIAN_POINT ( 'NONE',  ( 12.49999999999999600, 6.250000000000000000, 4.750000000000000000 ) ) ;
#24 = VERTEX_POINT ( 'NONE', #35 ) ;
#25 = DIRECTION ( 'NONE',  ( -0.0000000000000000000, -1.000000000000000000, -0.0000000000000000000 ) ) ;
#26 = ORIENTED_EDGE ( 'NONE', *, *, #225, .T. ) ;
#27 = APPROVAL_PERSON_ORGANIZATION ( #200, #78, #218 ) ;
#28 = FACE_OUTER_BOUND ( 'NONE', #151, .T. ) ;
#29 = DIRECTION ( 'NONE',  ( -1.000000000000000000, -6.938893903907228400E-017, 0.0000000000000000000 ) ) ;
#30 = ORIENTED_EDGE ( 'NONE', *, *, #21, .F. ) ;
#31 = AXIS2_PLACEMENT_3D ( 'NONE', #111, #113, #169 ) ;
#32 = CC_DESIGN_DATE_AND_TIME_ASSIGNMENT ( #110, #122, ( #159 ) ) ;
#33 = LINE ( 'NONE', #22, #86 ) ;
#34 = APPROVAL_ROLE ( '' ) ;
#35 = CARTESIAN_POINT ( 'NONE',  ( 12.49999999999999600, -6.249999999999998200, -4.750000000000000000 ) ) ;
#36 = PLANE ( 'NONE',  #31 ) ;
#37 = ORIENTED_EDGE ( 'NONE', *, *, #147, .F. ) ;
#38 = ORIENTED_EDGE ( 'NONE', *, *, #7, .F. ) ;
#39 = COORDINATED_UNIVERSAL_TIME_OFFSET ( 5, 0, .BEHIND. ) ;
#40 = APPROVAL_ROLE ( '' ) ;
#41 = CARTESIAN_POINT ( 'NONE',  ( -12.50000000000000400, -6.250000000000001800, 4.750000000000000000 ) ) ;
#42 = ORIENTED_EDGE ( 'NONE', *, *, #7, .T. ) ;
#43 = LINE ( 'NONE', #99, #170 ) ;
#44 = ADVANCED_FACE ( 'NONE', ( #229 ), #1, .F. ) ;
#45 = EDGE_CURVE ( 'NONE', #154, #24, #2, .T. ) ;
#46 = LINE ( 'NONE', #41, #189 ) ;
#47 = CC_DESIGN_PERSON_AND_ORGANIZATION_ASSIGNMENT ( #91, #161, ( #208 ) ) ;
#48 = COORDINATED_UNIVERSAL_TIME_OFFSET ( 5, 0, .BEHIND. ) ;
#49 = PERSON_AND_ORGANIZATION_ROLE ( 'design_owner' ) ;
#50 = VERTEX_POINT ( 'NONE', #68 ) ;
#51 = APPROVAL_PERSON_ORGANIZATION ( #103, #188, #40 ) ;
#52 = EDGE_CURVE ( 'NONE', #12, #15, #33, .T. ) ;
#53 = APPROVAL_STATUS ( 'not_yet_approved' ) ;
#54 = VECTOR ( 'NONE', #95, 1000.000000000000000 ) ;
#55 = DIRECTION ( 'NONE',  ( 0.0000000000000000000, -0.0000000000000000000, 1.000000000000000000 ) ) ;
#56 = DESIGN_CONTEXT ( 'detailed design', #13, 'design' ) ;
#57 = DIRECTION ( 'NONE',  ( 0.0000000000000000000, 1.000000000000000000, 0.0000000000000000000 ) ) ;
#58 = CARTESIAN_POINT ( 'NONE',  ( -12.50000000000000400, 6.249999999999998200, 4.750000000000000000 ) ) ;
#59 = PLANE ( 'NONE',  #105 ) ;
#60 = CC_DESIGN_SECURITY_CLASSIFICATION ( #135, ( #208 ) ) ;
#61 = VECTOR ( 'NONE', #203, 1000.000000000000000 ) ;
#62 = UNCERTAINTY_MEASURE_WITH_UNIT (LENGTH_MEASURE( 1.000000000000000100E-005 ), #174, 'distance_accuracy_value', 'NONE');
#63 = VECTOR ( 'NONE', #206, 1000.000000000000000 ) ;
#64 = LOCAL_TIME ( 8, 54, 1.000000000000000000, #97 ) ;
#65 =( NAMED_UNIT ( * ) SI_UNIT ( $, .STERADIAN. ) SOLID_ANGLE_UNIT ( ) );
#66 = EDGE_CURVE ( 'NONE', #107, #220, #141, .T. ) ;
#67 = EDGE_LOOP ( 'NONE', ( #80, #98, #10, #26 ) ) ;
#68 = CARTESIAN_POINT ( 'NONE',  ( -12.50000000000000400, -6.250000000000001800, 4.750000000000000000 ) ) ;
#69 = DIRECTION ( 'NONE',  ( 1.000000000000000000, 0.0000000000000000000, -0.0000000000000000000 ) ) ;
#70 = ORIENTED_EDGE ( 'NONE', *, *, #89, .F. ) ;
#71 = CARTESIAN_POINT ( 'NONE',  ( -12.50000000000000400, -6.250000000000001800, 4.750000000000000000 ) ) ;
#72 = DIRECTION ( 'NONE',  ( -0.0000000000000000000, -0.0000000000000000000, -1.000000000000000000 ) ) ;
#73 = CC_DESIGN_PERSON_AND_ORGANIZATION_ASSIGNMENT ( #194, #112, ( #208 ) ) ;
#74 = PLANE ( 'NONE',  #14 ) ;
#75 = ORIENTED_EDGE ( 'NONE', *, *, #233, .F. ) ;
#76 = APPROVAL_PERSON_ORGANIZATION ( #81, #171, #34 ) ;
#77 = VECTOR ( 'NONE', #92, 1000.000000000000000 ) ;
#78 = APPROVAL ( #87, 'UNSPECIFIED' ) ;
#79 = ADVANCED_FACE ( 'NONE', ( #127 ), #130, .T. ) ;
#80 = ORIENTED_EDGE ( 'NONE', *, *, #143, .T. ) ;
#81 = PERSON_AND_ORGANIZATION ( #192, #119 ) ;
#82 = CARTESIAN_POINT ( 'NONE',  ( 0.0000000000000000000, 0.0000000000000000000, 0.0000000000000000000 ) ) ;
#83 = ORIENTED_EDGE ( 'NONE', *, *, #147, .T. ) ;
#84 = ADVANCED_BREP_SHAPE_REPRESENTATION ( 'Web Model 41021MX_43209', ( #178, #175 ), #131 ) ;
#85 = CARTESIAN_POINT ( 'NONE',  ( 12.49999999999999600, 6.250000000000000000, 4.750000000000000000 ) ) ;
#86 = VECTOR ( 'NONE', #72, 1000.000000000000000 ) ;
#87 = APPROVAL_STATUS ( 'not_yet_approved' ) ;
#88 = DATE_AND_TIME ( #199, #64 ) ;
#89 = EDGE_CURVE ( 'NONE', #15, #220, #210, .T. ) ;
#90 = DIRECTION ( 'NONE',  ( 0.0000000000000000000, -0.0000000000000000000, 1.000000000000000000 ) ) ;
#91 = PERSON_AND_ORGANIZATION ( #192, #119 ) ;
#92 = DIRECTION ( 'NONE',  ( -0.0000000000000000000, -1.000000000000000000, -0.0000000000000000000 ) ) ;
#93 = EDGE_CURVE ( 'NONE', #50, #154, #115, .T. ) ;
#94 = PLANE ( 'NONE',  #19 ) ;
#95 = DIRECTION ( 'NONE',  ( -0.0000000000000000000, -0.0000000000000000000, -1.000000000000000000 ) ) ;
#96 = ORIENTED_EDGE ( 'NONE', *, *, #16, .F. ) ;
#97 = COORDINATED_UNIVERSAL_TIME_OFFSET ( 5, 0, .BEHIND. ) ;
#98 = ORIENTED_EDGE ( 'NONE', *, *, #93, .T. ) ;
#99 = CARTESIAN_POINT ( 'NONE',  ( -12.50000000000000400, -6.250000000000001800, -4.750000000000000000 ) ) ;
#100 = CALENDAR_DATE ( 2017, 30, 10 ) ;
#101 = DIRECTION ( 'NONE',  ( 0.0000000000000000000, 0.0000000000000000000, 1.000000000000000000 ) ) ;
#102 = EDGE_LOOP ( 'NONE', ( #83, #108, #30, #211 ) ) ;
#103 = PERSON_AND_ORGANIZATION ( #192, #119 ) ;
#104 = LOCAL_TIME ( 8, 54, 1.000000000000000000, #39 ) ;
#105 = AXIS2_PLACEMENT_3D ( 'NONE', #109, #145, #207 ) ;
#106 = PERSON_AND_ORGANIZATION_ROLE ( 'creator' ) ;
#107 = VERTEX_POINT ( 'NONE', #223 ) ;
#108 = ORIENTED_EDGE ( 'NONE', *, *, #52, .F. ) ;
#109 = CARTESIAN_POINT ( 'NONE',  ( 12.49999999999999600, -6.249999999999998200, 4.750000000000000000 ) ) ;
#110 = DATE_AND_TIME ( #100, #137 ) ;
#111 = CARTESIAN_POINT ( 'NONE',  ( -12.50000000000000400, -6.250000000000001800, 4.750000000000000000 ) ) ;
#112 = PERSON_AND_ORGANIZATION_ROLE ( 'design_supplier' ) ;
#113 = DIRECTION ( 'NONE',  ( 1.000000000000000000, 0.0000000000000000000, 0.0000000000000000000 ) ) ;
#114 = DIRECTION ( 'NONE',  ( -0.0000000000000000000, -0.0000000000000000000, -1.000000000000000000 ) ) ;
#115 = LINE ( 'NONE', #205, #63 ) ;
#116 = ORIENTED_EDGE ( 'NONE', *, *, #93, .F. ) ;
#117 = DATE_AND_TIME ( #221, #104 ) ;
#118 = CALENDAR_DATE ( 2017, 30, 10 ) ;
#119 = ORGANIZATION ( 'UNSPECIFIED', 'UNSPECIFIED', '' ) ;
#120 = COORDINATED_UNIVERSAL_TIME_OFFSET ( 5, 0, .BEHIND. ) ;
#121 = APPLICATION_PROTOCOL_DEFINITION ( 'international standard', 'config_control_design', 1994, #201 ) ;
#122 = DATE_TIME_ROLE ( 'creation_date' ) ;
#123 = ORIENTED_EDGE ( 'NONE', *, *, #16, .T. ) ;
#124 = CALENDAR_DATE ( 2017, 30, 10 ) ;
#125 = CARTESIAN_POINT ( 'NONE',  ( 12.49999999999999600, -6.249999999999998200, 4.750000000000000000 ) ) ;
#126 = DIRECTION ( 'NONE',  ( 1.000000000000000000, 0.0000000000000000000, -0.0000000000000000000 ) ) ;
#127 = FACE_OUTER_BOUND ( 'NONE', #67, .T. ) ;
#128 = DATE_AND_TIME ( #124, #222 ) ;
#129 = SECURITY_CLASSIFICATION_LEVEL ( 'unclassified' ) ;
#130 = PLANE ( 'NONE',  #219 ) ;
#131 =( GEOMETRIC_REPRESENTATION_CONTEXT ( 3 ) GLOBAL_UNCERTAINTY_ASSIGNED_CONTEXT ( ( #62 ) ) GLOBAL_UNIT_ASSIGNED_CONTEXT ( ( #174, #215, #65 ) ) REPRESENTATION_CONTEXT ( 'NONE', 'WORKASPACE' ) );
#132 = VERTEX_POINT ( 'NONE', #186 ) ;
#133 = VECTOR ( 'NONE', #29, 1000.000000000000000 ) ;
#134 = PERSON_AND_ORGANIZATION ( #192, #119 ) ;
#135 = SECURITY_CLASSIFICATION ( '', '', #129 ) ;
#136 = LINE ( 'NONE', #85, #133 ) ;
#137 = LOCAL_TIME ( 8, 54, 1.000000000000000000, #48 ) ;
#138 = PERSON_AND_ORGANIZATION ( #192, #119 ) ;
#139 = PRODUCT_DEFINITION_SHAPE ( 'NONE', 'NONE',  #159 ) ;
#140 = ORIENTED_EDGE ( 'NONE', *, *, #45, .F. ) ;
#141 = LINE ( 'NONE', #58, #193 ) ;
#142 = PERSON_AND_ORGANIZATION_ROLE ( 'classification_officer' ) ;
#143 = EDGE_CURVE ( 'NONE', #107, #50, #231, .T. ) ;
#144 = APPLICATION_PROTOCOL_DEFINITION ( 'international standard', 'config_control_design', 1994, #13 ) ;
#145 = DIRECTION ( 'NONE',  ( -1.387778780781445700E-016, 1.000000000000000000, 0.0000000000000000000 ) ) ;
#146 = VECTOR ( 'NONE', #57, 1000.000000000000000 ) ;
#147 = EDGE_CURVE ( 'NONE', #24, #15, #156, .T. ) ;
#148 = CARTESIAN_POINT ( 'NONE',  ( 0.0000000000000000000, 0.0000000000000000000, 4.750000000000000000 ) ) ;
#149 = DIRECTION ( 'NONE',  ( -1.000000000000000000, 0.0000000000000000000, 0.0000000000000000000 ) ) ;
#150 = CC_DESIGN_PERSON_AND_ORGANIZATION_ASSIGNMENT ( #134, #142, ( #135 ) ) ;
#151 = EDGE_LOOP ( 'NONE', ( #232, #38, #11, #183 ) ) ;
#152 = PERSON_AND_ORGANIZATION ( #192, #119 ) ;
#153 = ADVANCED_FACE ( 'NONE', ( #226 ), #59, .F. ) ;
#154 = VERTEX_POINT ( 'NONE', #224 ) ;
#155 = EDGE_LOOP ( 'NONE', ( #75, #70, #37, #96 ) ) ;
#156 = LINE ( 'NONE', #182, #61 ) ;
#157 = DIRECTION ( 'NONE',  ( 1.000000000000000000, 0.0000000000000000000, 0.0000000000000000000 ) ) ;
#158 = LOCAL_TIME ( 8, 54, 1.000000000000000000, #214 ) ;
#159 = PRODUCT_DEFINITION ( 'UNKNOWN', '', #208, #56 ) ;
#160 = CLOSED_SHELL ( 'NONE', ( #172, #153, #9, #195, #79, #44 ) ) ;
#161 = PERSON_AND_ORGANIZATION_ROLE ( 'creator' ) ;
#162 = VECTOR ( 'NONE', #17, 1000.000000000000000 ) ;
#163 = APPROVAL_DATE_TIME ( #181, #171 ) ;
#164 = DIRECTION ( 'NONE',  ( 1.000000000000000000, 1.387778780781445700E-016, -0.0000000000000000000 ) ) ;
#165 = CARTESIAN_POINT ( 'NONE',  ( 12.49999999999999600, -6.249999999999998200, 4.750000000000000000 ) ) ;
#166 = DIRECTION ( 'NONE',  ( 0.0000000000000000000, 0.0000000000000000000, 1.000000000000000000 ) ) ;
#167 = LINE ( 'NONE', #165, #146 ) ;
#168 = CC_DESIGN_PERSON_AND_ORGANIZATION_ASSIGNMENT ( #152, #106, ( #159 ) ) ;
#169 = DIRECTION ( 'NONE',  ( 0.0000000000000000000, 0.0000000000000000000, -1.000000000000000000 ) ) ;
#170 = VECTOR ( 'NONE', #25, 1000.000000000000000 ) ;
#171 = APPROVAL ( #53, 'UNSPECIFIED' ) ;
#172 = ADVANCED_FACE ( 'NONE', ( #28 ), #36, .F. ) ;
#173 = ORIENTED_EDGE ( 'NONE', *, *, #225, .F. ) ;
#174 =( LENGTH_UNIT ( ) NAMED_UNIT ( * ) SI_UNIT ( .MILLI., .METRE. ) );
#175 = AXIS2_PLACEMENT_3D ( 'NONE', #82, #101, #157 ) ;
#176 = ORIENTED_EDGE ( 'NONE', *, *, #52, .T. ) ;
#177 = MECHANICAL_CONTEXT ( 'NONE', #201, 'mechanical' ) ;
#178 = MANIFOLD_SOLID_BREP ( 'Boss-Extrude1', #160 ) ;
#179 = PRODUCT_RELATED_PRODUCT_CATEGORY ( 'detail', '', ( #191 ) ) ;
#180 = EDGE_LOOP ( 'NONE', ( #197, #8, #173, #176 ) ) ;
#181 = DATE_AND_TIME ( #118, #158 ) ;
#182 = CARTESIAN_POINT ( 'NONE',  ( 12.49999999999999600, -6.249999999999998200, -4.750000000000000000 ) ) ;
#183 = ORIENTED_EDGE ( 'NONE', *, *, #66, .T. ) ;
#184 = CARTESIAN_POINT ( 'NONE',  ( 0.0000000000000000000, 0.0000000000000000000, -4.750000000000000000 ) ) ;
#185 = APPROVAL_DATE_TIME ( #88, #78 ) ;
#186 = CARTESIAN_POINT ( 'NONE',  ( -12.50000000000000400, -6.250000000000001800, -4.750000000000000000 ) ) ;
#187 = CARTESIAN_POINT ( 'NONE',  ( 12.49999999999999600, 6.250000000000000000, 4.750000000000000000 ) ) ;
#188 = APPROVAL ( #227, 'UNSPECIFIED' ) ;
#189 = VECTOR ( 'NONE', #4, 1000.000000000000000 ) ;
#190 = DIRECTION ( 'NONE',  ( 6.938893903907228400E-017, -1.000000000000000000, 0.0000000000000000000 ) ) ;
#191 = PRODUCT ( 'Web Model 41021MX_43209', 'Web Model 41021MX_43209', '', ( #177 ) ) ;
#192 = PERSON ( 'UNSPECIFIED', 'UNSPECIFIED', 'UNSPECIFIED', ('UNSPECIFIED'), ('UNSPECIFIED'), ('UNSPECIFIED') ) ;
#193 = VECTOR ( 'NONE', #114, 1000.000000000000000 ) ;
#194 = PERSON_AND_ORGANIZATION ( #192, #119 ) ;
#195 = ADVANCED_FACE ( 'NONE', ( #198 ), #74, .F. ) ;
#196 = CC_DESIGN_APPROVAL ( #78, ( #159 ) ) ;
#197 = ORIENTED_EDGE ( 'NONE', *, *, #89, .T. ) ;
#198 = FACE_OUTER_BOUND ( 'NONE', #180, .T. ) ;
#199 = CALENDAR_DATE ( 2017, 30, 10 ) ;
#200 = PERSON_AND_ORGANIZATION ( #192, #119 ) ;
#201 = APPLICATION_CONTEXT ( 'configuration controlled 3d designs of mechanical parts and assemblies' ) ;
#202 = CC_DESIGN_DATE_AND_TIME_ASSIGNMENT ( #128, #3, ( #135 ) ) ;
#203 = DIRECTION ( 'NONE',  ( 0.0000000000000000000, 1.000000000000000000, 0.0000000000000000000 ) ) ;
#204 = EDGE_LOOP ( 'NONE', ( #123, #140, #116, #42 ) ) ;
#205 = CARTESIAN_POINT ( 'NONE',  ( 12.49999999999999600, -6.249999999999998200, 4.750000000000000000 ) ) ;
#206 = DIRECTION ( 'NONE',  ( 1.000000000000000000, 1.387778780781445700E-016, -0.0000000000000000000 ) ) ;
#207 = DIRECTION ( 'NONE',  ( -1.000000000000000000, -1.387778780781445700E-016, 0.0000000000000000000 ) ) ;
#208 = PRODUCT_DEFINITION_FORMATION_WITH_SPECIFIED_SOURCE ( 'ANY', '', #191, .NOT_KNOWN. ) ;
#209 = CARTESIAN_POINT ( 'NONE',  ( 12.49999999999999600, 6.250000000000000000, -4.750000000000000000 ) ) ;
#210 = LINE ( 'NONE', #18, #162 ) ;
#211 = ORIENTED_EDGE ( 'NONE', *, *, #45, .T. ) ;
#212 = CARTESIAN_POINT ( 'NONE',  ( -12.50000000000000400, 6.249999999999998200, -4.750000000000000000 ) ) ;
#213 = CC_DESIGN_PERSON_AND_ORGANIZATION_ASSIGNMENT ( #138, #49, ( #191 ) ) ;
#214 = COORDINATED_UNIVERSAL_TIME_OFFSET ( 5, 0, .BEHIND. ) ;
#215 =( NAMED_UNIT ( * ) PLANE_ANGLE_UNIT ( ) SI_UNIT ( $, .RADIAN. ) );
#216 = CC_DESIGN_APPROVAL ( #188, ( #208 ) ) ;
#217 = APPROVAL_DATE_TIME ( #117, #188 ) ;
#218 = APPROVAL_ROLE ( '' ) ;
#219 = AXIS2_PLACEMENT_3D ( 'NONE', #148, #90, #126 ) ;
#220 = VERTEX_POINT ( 'NONE', #212 ) ;
#221 = CALENDAR_DATE ( 2017, 30, 10 ) ;
#222 = LOCAL_TIME ( 8, 54, 1.000000000000000000, #120 ) ;
#223 = CARTESIAN_POINT ( 'NONE',  ( -12.50000000000000400, 6.249999999999998200, 4.750000000000000000 ) ) ;
#224 = CARTESIAN_POINT ( 'NONE',  ( 12.49999999999999600, -6.249999999999998200, 4.750000000000000000 ) ) ;
#225 = EDGE_CURVE ( 'NONE', #12, #107, #136, .T. ) ;
#226 = FACE_OUTER_BOUND ( 'NONE', #204, .T. ) ;
#227 = APPROVAL_STATUS ( 'not_yet_approved' ) ;
#228 = CARTESIAN_POINT ( 'NONE',  ( 12.49999999999999600, -6.249999999999998200, 4.750000000000000000 ) ) ;
#229 = FACE_OUTER_BOUND ( 'NONE', #155, .T. ) ;
#230 = SHAPE_DEFINITION_REPRESENTATION ( #139, #84 ) ;
#231 = LINE ( 'NONE', #71, #77 ) ;
#232 = ORIENTED_EDGE ( 'NONE', *, *, #233, .T. ) ;
#233 = EDGE_CURVE ( 'NONE', #220, #132, #43, .T. ) ;
#234 = VECTOR ( 'NONE', #164, 1000.000000000000000 ) ;
#235 = CC_DESIGN_APPROVAL ( #171, ( #135 ) ) ;
#236 = AXIS2_PLACEMENT_3D ( 'NONE', #184, #55, #69 ) ;
#237 = LINE ( 'NONE', #20, #234 ) ;
ENDSEC;
END-ISO-10303-21;
