ISO-10303-21;
HEADER;
FILE_DESCRIPTION (( 'STEP AP203' ),
    '1' );
FILE_NAME ('Web Model 11542_11542.step',
    '2019-12-17T13:44:14',
    ( '' ),
    ( '' ),
    'SwSTEP 2.0',
    'SolidWorks 2018',
    '' );
FILE_SCHEMA (( 'CONFIG_CONTROL_DESIGN' ));
ENDSEC;

DATA;
#1 = DIRECTION ( 'NONE',  ( 0.0000000000000000000, -1.000000000000000000, 0.0000000000000000000 ) ) ;
#2 = ADVANCED_FACE ( 'NONE', ( #242 ), #266, .T. ) ;
#3 = CARTESIAN_POINT ( 'NONE',  ( -4.087954294834000635, 0.0000000000000000000, -80.33260608962000049 ) ) ;
#4 = CARTESIAN_POINT ( 'NONE',  ( 8.716700662856998960, 0.0000000000000000000, -32.00000000000000000 ) ) ;
#5 = UNCERTAINTY_MEASURE_WITH_UNIT (LENGTH_MEASURE( 1.000000000000000082E-05 ), #106, 'distance_accuracy_value', 'NONE');
#6 = ADVANCED_FACE ( 'NONE', ( #114 ), #115, .F. ) ;
#7 = AXIS2_PLACEMENT_3D ( 'NONE', #66, #271, #223 ) ;
#8 = CIRCLE ( 'NONE', #175, 31.99999999999999645 ) ;
#9 = CARTESIAN_POINT ( 'NONE',  ( 119.7720000000000056, 0.0000000000000000000, 0.0000000000000000000 ) ) ;
#10 = VERTEX_POINT ( 'NONE', #199 ) ;
#11 = DIRECTION ( 'NONE',  ( 1.000000000000000000, 0.0000000000000000000, 0.0000000000000000000 ) ) ;
#12 =( NAMED_UNIT ( * ) SI_UNIT ( $, .STERADIAN. ) SOLID_ANGLE_UNIT ( ) );
#13 = PERSON_AND_ORGANIZATION_ROLE ( 'creator' ) ;
#14 = LOCAL_TIME ( 8, 44, 14.00000000000000000, #89 ) ;
#15 = CARTESIAN_POINT ( 'NONE',  ( 0.0000000000000000000, -1.461547553835000013, -31.96660568074000253 ) ) ;
#16 = CIRCLE ( 'NONE', #163, 49.99999999999998579 ) ;
#17 = CLOSED_SHELL ( 'NONE', ( #205, #76, #2, #279, #53, #148, #254, #6, #48 ) ) ;
#18 = AXIS2_PLACEMENT_3D ( 'NONE', #29, #71, #95 ) ;
#19 = CARTESIAN_POINT ( 'NONE',  ( 0.0000000000000000000, 0.9772080561315000802, -31.48055075049999729 ) ) ;
#20 = LOCAL_TIME ( 8, 44, 14.00000000000000000, #88 ) ;
#21 = EDGE_CURVE ( 'NONE', #258, #90, #141, .T. ) ;
#22 = VERTEX_POINT ( 'NONE', #167 ) ;
#23 = DIRECTION ( 'NONE',  ( 0.0000000000000000000, -1.000000000000000000, 0.0000000000000000000 ) ) ;
#24 = DIRECTION ( 'NONE',  ( 0.0000000000000000000, 0.0000000000000000000, -1.000000000000000000 ) ) ;
#25 = CIRCLE ( 'NONE', #195, 32.00000000000000000 ) ;
#26 = CARTESIAN_POINT ( 'NONE',  ( 0.0000000000000000000, -0.1636124747654000011, -30.66416206937999789 ) ) ;
#27 = EDGE_CURVE ( 'NONE', #22, #31, #109, .T. ) ;
#28 = CARTESIAN_POINT ( 'NONE',  ( 8.716700662856998960, 0.0000000000000000000, -32.00000000000000000 ) ) ;
#29 = CARTESIAN_POINT ( 'NONE',  ( -0.7204760492941999495, 1.233470086023999879E-14, 0.0000000000000000000 ) ) ;
#30 = LINE ( 'NONE', #177, #134 ) ;
#31 = VERTEX_POINT ( 'NONE', #118 ) ;
#32 = DIRECTION ( 'NONE',  ( 0.0000000000000000000, -1.000000000000000000, 0.0000000000000000000 ) ) ;
#33 = APPLICATION_PROTOCOL_DEFINITION ( 'international standard', 'config_control_design', 1994, #305 ) ;
#34 = PERSON_AND_ORGANIZATION ( #212, #285 ) ;
#35 = SECURITY_CLASSIFICATION_LEVEL ( 'unclassified' ) ;
#36 = MECHANICAL_CONTEXT ( 'NONE', #305, 'mechanical' ) ;
#37 = AXIS2_PLACEMENT_3D ( 'NONE', #204, #123, #152 ) ;
#38 = APPROVAL_PERSON_ORGANIZATION ( #168, #170, #84 ) ;
#39 = EDGE_LOOP ( 'NONE', ( #309, #169 ) ) ;
#40 = CC_DESIGN_PERSON_AND_ORGANIZATION_ASSIGNMENT ( #128, #209, ( #98 ) ) ;
#41 = VERTEX_POINT ( 'NONE', #291 ) ;
#42 = CALENDAR_DATE ( 2019, 17, 12 ) ;
#43 = ORIENTED_EDGE ( 'NONE', *, *, #132, .F. ) ;
#44 = DIRECTION ( 'NONE',  ( 0.0000000000000000000, 1.000000000000000000, 0.0000000000000000000 ) ) ;
#45 = SECURITY_CLASSIFICATION ( '', '', #35 ) ;
#46 = DIRECTION ( 'NONE',  ( 0.0000000000000000000, -1.000000000000000000, 0.0000000000000000000 ) ) ;
#47 = ORIENTED_EDGE ( 'NONE', *, *, #162, .T. ) ;
#48 = ADVANCED_FACE ( 'NONE', ( #67 ), #289, .F. ) ;
#49 = CARTESIAN_POINT ( 'NONE',  ( 2.926556257592446197, 1.225810098579718455, -31.97738385044925735 ) ) ;
#50 = ORIENTED_EDGE ( 'NONE', *, *, #295, .T. ) ;
#51 = CC_DESIGN_PERSON_AND_ORGANIZATION_ASSIGNMENT ( #150, #13, ( #70 ) ) ;
#52 = CARTESIAN_POINT ( 'NONE',  ( 13.71670066285999923, -32.00000000000000000, 0.0000000000000000000 ) ) ;
#53 = ADVANCED_FACE ( 'NONE', ( #78 ), #228, .T. ) ;
#54 = CARTESIAN_POINT ( 'NONE',  ( 5.832123145211446591, 0.7387203962428386950, -32.00000000000000000 ) ) ;
#55 = ORIENTED_EDGE ( 'NONE', *, *, #132, .T. ) ;
#56 = DATE_TIME_ROLE ( 'creation_date' ) ;
#57 = CARTESIAN_POINT ( 'NONE',  ( 14.06311082436999982, 1.052423362576000079E-14, 0.0000000000000000000 ) ) ;
#58 = CONICAL_SURFACE ( 'NONE', #81, 49.26922622307998978, 0.7853981633972997312 ) ;
#59 = EDGE_LOOP ( 'NONE', ( #246, #187 ) ) ;
#60 = B_SPLINE_CURVE_WITH_KNOTS ( 'NONE', 3,
 ( #15, #304, #278, #185 ),
 .UNSPECIFIED., .F., .F.,
 ( 4, 4 ),
 ( 0.0000000000000000000, 1.000000000000000000 ),
 .UNSPECIFIED. ) ;
#61 = PERSON_AND_ORGANIZATION ( #212, #285 ) ;
#62 = ORIENTED_EDGE ( 'NONE', *, *, #172, .F. ) ;
#63 = FACE_OUTER_BOUND ( 'NONE', #286, .T. ) ;
#64 = VERTEX_POINT ( 'NONE', #173 ) ;
#65 = CC_DESIGN_APPROVAL ( #170, ( #98 ) ) ;
#66 = CARTESIAN_POINT ( 'NONE',  ( 14.06311082436999982, 1.052423362576000079E-14, 0.0000000000000000000 ) ) ;
#67 = FACE_OUTER_BOUND ( 'NONE', #265, .T. ) ;
#68 = CARTESIAN_POINT ( 'NONE',  ( 0.0000000000000000000, 1.461547553835000013, -31.96660568074000253 ) ) ;
#69 = LOCAL_TIME ( 8, 44, 14.00000000000000000, #83 ) ;
#70 = PRODUCT_DEFINITION ( 'UNKNOWN', '', #98, #188 ) ;
#71 = DIRECTION ( 'NONE',  ( 1.000000000000000000, 0.0000000000000000000, 0.0000000000000000000 ) ) ;
#72 = AXIS2_PLACEMENT_3D ( 'NONE', #117, #171, #314 ) ;
#73 = SHAPE_DEFINITION_REPRESENTATION ( #74, #311 ) ;
#74 = PRODUCT_DEFINITION_SHAPE ( 'NONE', 'NONE',  #70 ) ;
#75 = CARTESIAN_POINT ( 'NONE',  ( 13.71670066285999923, -32.00000000000000000, 0.0000000000000000000 ) ) ;
#76 = ADVANCED_FACE ( 'NONE', ( #283 ), #287, .F. ) ;
#77 = CARTESIAN_POINT ( 'NONE',  ( 0.0000000000000000000, -0.4900253017331000494, -30.99168220211999625 ) ) ;
#78 = FACE_OUTER_BOUND ( 'NONE', #112, .T. ) ;
#79 = APPROVAL_STATUS ( 'not_yet_approved' ) ;
#80 = ORIENTED_EDGE ( 'NONE', *, *, #222, .T. ) ;
#81 = AXIS2_PLACEMENT_3D ( 'NONE', #149, #1, #153 ) ;
#82 = APPLICATION_PROTOCOL_DEFINITION ( 'international standard', 'config_control_design', 1994, #183 ) ;
#83 = COORDINATED_UNIVERSAL_TIME_OFFSET ( 5, 0, .BEHIND. ) ;
#84 = APPROVAL_ROLE ( '' ) ;
#85 = LOCAL_TIME ( 8, 44, 14.00000000000000000, #110 ) ;
#86 = CC_DESIGN_APPROVAL ( #239, ( #45 ) ) ;
#87 = ORIENTED_EDGE ( 'NONE', *, *, #235, .T. ) ;
#88 = COORDINATED_UNIVERSAL_TIME_OFFSET ( 5, 0, .BEHIND. ) ;
#89 = COORDINATED_UNIVERSAL_TIME_OFFSET ( 5, 0, .BEHIND. ) ;
#90 = VERTEX_POINT ( 'NONE', #75 ) ;
#91 = CC_DESIGN_PERSON_AND_ORGANIZATION_ASSIGNMENT ( #61, #301, ( #45 ) ) ;
#92 = CARTESIAN_POINT ( 'NONE',  ( 0.0000000000000000000, 1.300371853701000058, -31.80485529844000325 ) ) ;
#93 = VECTOR ( 'NONE', #247, 1000.000000000000000 ) ;
#94 = CARTESIAN_POINT ( 'NONE',  ( 14.40952098587999863, -30.80000000000000071, 0.0000000000000000000 ) ) ;
#95 = DIRECTION ( 'NONE',  ( 0.0000000000000000000, -1.000000000000000000, 0.0000000000000000000 ) ) ;
#96 = CARTESIAN_POINT ( 'NONE',  ( 0.0000000000000000000, -1.461547553835000013, -31.96660568074000253 ) ) ;
#97 = CARTESIAN_POINT ( 'NONE',  ( 14.40952098587999863, 30.80000000000000071, 0.0000000000000000000 ) ) ;
#98 = PRODUCT_DEFINITION_FORMATION_WITH_SPECIFIED_SOURCE ( 'ANY', '', #104, .NOT_KNOWN. ) ;
#99 = SPHERICAL_SURFACE ( 'NONE', #137, 109.7719999999999914 ) ;
#100 = ORIENTED_EDGE ( 'NONE', *, *, #243, .T. ) ;
#101 = CARTESIAN_POINT ( 'NONE',  ( 13.71670066285999923, 1.056665663530999968E-14, 0.0000000000000000000 ) ) ;
#102 = APPROVAL_STATUS ( 'not_yet_approved' ) ;
#103 = CARTESIAN_POINT ( 'NONE',  ( 14.40952098587999863, -30.80000000000000071, 0.0000000000000000000 ) ) ;
#104 = PRODUCT ( 'Web Model 11542_11542', 'Web Model 11542_11542', '', ( #36 ) ) ;
#105 = DIRECTION ( 'NONE',  ( -1.000000000000000000, 0.0000000000000000000, 0.0000000000000000000 ) ) ;
#106 =( LENGTH_UNIT ( ) NAMED_UNIT ( * ) SI_UNIT ( .MILLI., .METRE. ) );
#107 = DIRECTION ( 'NONE',  ( -1.000000000000000000, 0.0000000000000000000, 0.0000000000000000000 ) ) ;
#108 = AXIS2_PLACEMENT_3D ( 'NONE', #240, #121, #146 ) ;
#109 = B_SPLINE_CURVE_WITH_KNOTS ( 'NONE', 3,
 ( #245, #244, #196, #19, #92, #68 ),
 .UNSPECIFIED., .F., .F.,
 ( 4, 1, 1, 4 ),
 ( 0.0000000000000000000, 0.3333333333333000081, 0.6666666666667000474, 1.000000000000000000 ),
 .UNSPECIFIED. ) ;
#110 = COORDINATED_UNIVERSAL_TIME_OFFSET ( 5, 0, .BEHIND. ) ;
#111 = AXIS2_PLACEMENT_3D ( 'NONE', #297, #249, #201 ) ;
#112 = EDGE_LOOP ( 'NONE', ( #267, #178, #303, #214 ) ) ;
#113 = AXIS2_PLACEMENT_3D ( 'NONE', #9, #232, #231 ) ;
#114 = FACE_OUTER_BOUND ( 'NONE', #299, .T. ) ;
#115 = PLANE ( 'NONE',  #72 ) ;
#116 =( GEOMETRIC_REPRESENTATION_CONTEXT ( 3 ) GLOBAL_UNCERTAINTY_ASSIGNED_CONTEXT ( ( #5 ) ) GLOBAL_UNIT_ASSIGNED_CONTEXT ( ( #106, #284, #12 ) ) REPRESENTATION_CONTEXT ( 'NONE', 'WORKASPACE' ) );
#117 = CARTESIAN_POINT ( 'NONE',  ( 0.0000000000000000000, 1.224646799146999965E-14, 0.0000000000000000000 ) ) ;
#118 = CARTESIAN_POINT ( 'NONE',  ( 0.0000000000000000000, 1.461547553835000013, -31.96660568074000253 ) ) ;
#119 = DATE_AND_TIME ( #155, #14 ) ;
#120 = ORIENTED_EDGE ( 'NONE', *, *, #243, .F. ) ;
#121 = DIRECTION ( 'NONE',  ( 0.0000000000000000000, 1.000000000000000000, 0.0000000000000000000 ) ) ;
#122 = CC_DESIGN_PERSON_AND_ORGANIZATION_ASSIGNMENT ( #190, #257, ( #98 ) ) ;
#123 = DIRECTION ( 'NONE',  ( -1.000000000000000000, 0.0000000000000000000, 0.0000000000000000000 ) ) ;
#124 = EDGE_CURVE ( 'NONE', #258, #90, #25, .T. ) ;
#125 = CONICAL_SURFACE ( 'NONE', #273, 31.39999999999999858, 1.047197551196400456 ) ;
#126 = ORIENTED_EDGE ( 'NONE', *, *, #27, .T. ) ;
#127 = CARTESIAN_POINT ( 'NONE',  ( 14.40952098587999863, 1.048181061620999875E-14, 0.0000000000000000000 ) ) ;
#128 = PERSON_AND_ORGANIZATION ( #212, #285 ) ;
#129 = ORIENTED_EDGE ( 'NONE', *, *, #124, .T. ) ;
#130 = PERSON_AND_ORGANIZATION_ROLE ( 'design_owner' ) ;
#131 = DIRECTION ( 'NONE',  ( 0.0000000000000000000, 1.000000000000000000, 0.0000000000000000000 ) ) ;
#132 = EDGE_CURVE ( 'NONE', #41, #258, #251, .T. ) ;
#133 = DIRECTION ( 'NONE',  ( 0.0000000000000000000, 0.0000000000000000000, 1.000000000000000000 ) ) ;
#134 = VECTOR ( 'NONE', #224, 1000.000000000000000 ) ;
#135 = ORIENTED_EDGE ( 'NONE', *, *, #162, .F. ) ;
#136 = B_SPLINE_CURVE_WITH_KNOTS ( 'NONE', 3,
 ( #28, #54, #49, #225 ),
 .UNSPECIFIED., .F., .F.,
 ( 4, 4 ),
 ( 0.0000000000000000000, 1.000000000000000000 ),
 .UNSPECIFIED. ) ;
#137 = AXIS2_PLACEMENT_3D ( 'NONE', #300, #274, #32 ) ;
#138 = FACE_OUTER_BOUND ( 'NONE', #39, .T. ) ;
#139 = VERTEX_POINT ( 'NONE', #4 ) ;
#140 = APPROVAL_PERSON_ORGANIZATION ( #215, #239, #158 ) ;
#141 = CIRCLE ( 'NONE', #216, 32.00000000000000000 ) ;
#142 = AXIS2_PLACEMENT_3D ( 'NONE', #316, #24, #46 ) ;
#143 = FACE_OUTER_BOUND ( 'NONE', #262, .T. ) ;
#144 = ORIENTED_EDGE ( 'NONE', *, *, #282, .F. ) ;
#145 = DIRECTION ( 'NONE',  ( 1.000000000000000000, 0.0000000000000000000, 0.0000000000000000000 ) ) ;
#146 = DIRECTION ( 'NONE',  ( -0.08175908589669182713, 0.0000000000000000000, -0.9966521217924222409 ) ) ;
#147 = EDGE_CURVE ( 'NONE', #10, #277, #193, .T. ) ;
#148 = ADVANCED_FACE ( 'NONE', ( #143 ), #276, .T. ) ;
#149 = CARTESIAN_POINT ( 'NONE',  ( -4.087954294834000635, 0.7307737769176000375, -80.33260608962000049 ) ) ;
#150 = PERSON_AND_ORGANIZATION ( #212, #285 ) ;
#151 = DIRECTION ( 'NONE',  ( -0.5000000000000169864, 0.8660254037844288266, 0.0000000000000000000 ) ) ;
#152 = DIRECTION ( 'NONE',  ( 0.0000000000000000000, 1.000000000000000000, 0.0000000000000000000 ) ) ;
#153 = DIRECTION ( 'NONE',  ( 0.08175908589669181326, 0.0000000000000000000, 0.9966521217924222409 ) ) ;
#154 = CC_DESIGN_APPROVAL ( #226, ( #70 ) ) ;
#155 = CALENDAR_DATE ( 2019, 17, 12 ) ;
#156 = CARTESIAN_POINT ( 'NONE',  ( 13.71670066285999923, 32.00000000000000000, 0.0000000000000000000 ) ) ;
#157 = ORIENTED_EDGE ( 'NONE', *, *, #27, .F. ) ;
#158 = APPROVAL_ROLE ( '' ) ;
#159 = B_SPLINE_CURVE_WITH_KNOTS ( 'NONE', 3,
 ( #275, #26, #77, #250, #203, #96 ),
 .UNSPECIFIED., .F., .F.,
 ( 4, 1, 1, 4 ),
 ( 0.0000000000000000000, 0.3333333333333000081, 0.6666666666667000474, 1.000000000000000000 ),
 .UNSPECIFIED. ) ;
#160 = APPROVAL_PERSON_ORGANIZATION ( #34, #226, #161 ) ;
#161 = APPROVAL_ROLE ( '' ) ;
#162 = EDGE_CURVE ( 'NONE', #22, #64, #159, .T. ) ;
#163 = AXIS2_PLACEMENT_3D ( 'NONE', #3, #181, #296 ) ;
#164 = CALENDAR_DATE ( 2019, 17, 12 ) ;
#165 = ORIENTED_EDGE ( 'NONE', *, *, #172, .T. ) ;
#166 = CIRCLE ( 'NONE', #180, 30.80000000000000071 ) ;
#167 = CARTESIAN_POINT ( 'NONE',  ( 0.0000000000000000000, 0.0000000000000000000, -30.50000000000000000 ) ) ;
#168 = PERSON_AND_ORGANIZATION ( #212, #285 ) ;
#169 = ORIENTED_EDGE ( 'NONE', *, *, #317, .F. ) ;
#170 = APPROVAL ( #182, 'UNSPECIFIED' ) ;
#171 = DIRECTION ( 'NONE',  ( 1.000000000000000000, 0.0000000000000000000, 0.0000000000000000000 ) ) ;
#172 = EDGE_CURVE ( 'NONE', #22, #139, #16, .T. ) ;
#173 = CARTESIAN_POINT ( 'NONE',  ( 0.0000000000000000000, -1.461547553835000013, -31.96660568074000253 ) ) ;
#174 = ORIENTED_EDGE ( 'NONE', *, *, #248, .F. ) ;
#175 = AXIS2_PLACEMENT_3D ( 'NONE', #260, #280, #302 ) ;
#176 = DIRECTION ( 'NONE',  ( 1.000000000000000000, 0.0000000000000000000, 0.0000000000000000000 ) ) ;
#177 = CARTESIAN_POINT ( 'NONE',  ( 13.71670066285999923, 32.00000000000000000, 0.0000000000000000000 ) ) ;
#178 = ORIENTED_EDGE ( 'NONE', *, *, #200, .F. ) ;
#179 = CARTESIAN_POINT ( 'NONE',  ( 0.0000000000000000000, -32.00000000000000000, 0.0000000000000000000 ) ) ;
#180 = AXIS2_PLACEMENT_3D ( 'NONE', #127, #176, #206 ) ;
#181 = DIRECTION ( 'NONE',  ( 0.0000000000000000000, 1.000000000000000000, 0.0000000000000000000 ) ) ;
#182 = APPROVAL_STATUS ( 'not_yet_approved' ) ;
#183 = APPLICATION_CONTEXT ( 'configuration controlled 3d designs of mechanical parts and assemblies' ) ;
#184 = EDGE_CURVE ( 'NONE', #41, #310, #166, .T. ) ;
#185 = CARTESIAN_POINT ( 'NONE',  ( 8.716700662856998960, 0.0000000000000000000, -32.00000000000000000 ) ) ;
#186 = CIRCLE ( 'NONE', #288, 30.80000000000000071 ) ;
#187 = ORIENTED_EDGE ( 'NONE', *, *, #263, .F. ) ;
#188 = DESIGN_CONTEXT ( 'detailed design', #183, 'design' ) ;
#189 = APPROVAL_DATE_TIME ( #237, #239 ) ;
#190 = PERSON_AND_ORGANIZATION ( #212, #285 ) ;
#191 = PRODUCT_RELATED_PRODUCT_CATEGORY ( 'detail', '', ( #104 ) ) ;
#192 = AXIS2_PLACEMENT_3D ( 'NONE', #268, #145, #23 ) ;
#193 = CIRCLE ( 'NONE', #111, 32.00000000000000000 ) ;
#194 = ORIENTED_EDGE ( 'NONE', *, *, #222, .F. ) ;
#195 = AXIS2_PLACEMENT_3D ( 'NONE', #101, #253, #227 ) ;
#196 = CARTESIAN_POINT ( 'NONE',  ( 0.0000000000000000000, 0.4900255972025000517, -30.99168249859999946 ) ) ;
#197 = APPROVAL_DATE_TIME ( #119, #170 ) ;
#198 = ORIENTED_EDGE ( 'NONE', *, *, #147, .F. ) ;
#199 = CARTESIAN_POINT ( 'NONE',  ( 0.0000000000000000000, 32.00000000000000000, 0.0000000000000000000 ) ) ;
#200 = EDGE_CURVE ( 'NONE', #90, #277, #269, .T. ) ;
#201 = DIRECTION ( 'NONE',  ( 0.0000000000000000000, 1.000000000000000000, 0.0000000000000000000 ) ) ;
#202 = ORIENTED_EDGE ( 'NONE', *, *, #263, .T. ) ;
#203 = CARTESIAN_POINT ( 'NONE',  ( 0.0000000000000000000, -1.300371701443000072, -31.80485514564000127 ) ) ;
#204 = CARTESIAN_POINT ( 'NONE',  ( 0.0000000000000000000, 1.224646799146999965E-14, 0.0000000000000000000 ) ) ;
#205 = ADVANCED_FACE ( 'NONE', ( #138 ), #99, .F. ) ;
#206 = DIRECTION ( 'NONE',  ( 0.0000000000000000000, 1.000000000000000000, 0.0000000000000000000 ) ) ;
#207 = VECTOR ( 'NONE', #272, 1000.000000000000114 ) ;
#208 = ORIENTED_EDGE ( 'NONE', *, *, #184, .F. ) ;
#209 = PERSON_AND_ORGANIZATION_ROLE ( 'design_supplier' ) ;
#210 = AXIS2_PLACEMENT_3D ( 'NONE', #306, #133, #11 ) ;
#211 = MANIFOLD_SOLID_BREP ( 'Web Model 11542.stp', #17 ) ;
#212 = PERSON ( 'UNSPECIFIED', 'UNSPECIFIED', 'UNSPECIFIED', ('UNSPECIFIED'), ('UNSPECIFIED'), ('UNSPECIFIED') ) ;
#213 = CIRCLE ( 'NONE', #37, 32.00000000000000000 ) ;
#214 = ORIENTED_EDGE ( 'NONE', *, *, #248, .T. ) ;
#215 = PERSON_AND_ORGANIZATION ( #212, #285 ) ;
#216 = AXIS2_PLACEMENT_3D ( 'NONE', #221, #313, #44 ) ;
#217 = DATE_AND_TIME ( #164, #20 ) ;
#218 = CALENDAR_DATE ( 2019, 17, 12 ) ;
#219 = CC_DESIGN_SECURITY_CLASSIFICATION ( #45, ( #98 ) ) ;
#220 = ORIENTED_EDGE ( 'NONE', *, *, #21, .T. ) ;
#221 = CARTESIAN_POINT ( 'NONE',  ( 13.71670066285999923, 1.056665663530999968E-14, 0.0000000000000000000 ) ) ;
#222 = EDGE_CURVE ( 'NONE', #139, #31, #136, .T. ) ;
#223 = DIRECTION ( 'NONE',  ( 0.0000000000000000000, 1.000000000000000000, 0.0000000000000000000 ) ) ;
#224 = DIRECTION ( 'NONE',  ( -1.000000000000000000, 0.0000000000000000000, 0.0000000000000000000 ) ) ;
#225 = CARTESIAN_POINT ( 'NONE',  ( 0.0000000000000000000, 1.461547553835000013, -31.96660568074000253 ) ) ;
#226 = APPROVAL ( #102, 'UNSPECIFIED' ) ;
#227 = DIRECTION ( 'NONE',  ( 0.0000000000000000000, 1.000000000000000000, 0.0000000000000000000 ) ) ;
#228 = CYLINDRICAL_SURFACE ( 'NONE', #192, 32.00000000000000000 ) ;
#229 = ORIENTED_EDGE ( 'NONE', *, *, #282, .T. ) ;
#230 = DATE_TIME_ROLE ( 'classification_date' ) ;
#231 = DIRECTION ( 'NONE',  ( -1.000000000000000000, 0.0000000000000000000, 0.0000000000000000000 ) ) ;
#232 = DIRECTION ( 'NONE',  ( 0.0000000000000000000, 0.0000000000000000000, 1.000000000000000000 ) ) ;
#233 = DATE_AND_TIME ( #42, #85 ) ;
#234 = ORIENTED_EDGE ( 'NONE', *, *, #124, .F. ) ;
#235 = EDGE_CURVE ( 'NONE', #310, #90, #261, .T. ) ;
#236 = ORIENTED_EDGE ( 'NONE', *, *, #200, .T. ) ;
#237 = DATE_AND_TIME ( #218, #69 ) ;
#238 = CC_DESIGN_DATE_AND_TIME_ASSIGNMENT ( #233, #56, ( #70 ) ) ;
#239 = APPROVAL ( #79, 'UNSPECIFIED' ) ;
#240 = CARTESIAN_POINT ( 'NONE',  ( -4.087954294834000635, -0.7307737769176000375, -80.33260608962000049 ) ) ;
#241 = PERSON_AND_ORGANIZATION ( #212, #285 ) ;
#242 = FACE_OUTER_BOUND ( 'NONE', #294, .T. ) ;
#243 = EDGE_CURVE ( 'NONE', #10, #31, #213, .T. ) ;
#244 = CARTESIAN_POINT ( 'NONE',  ( 0.0000000000000000000, 0.1636126011020999915, -30.66416219613999772 ) ) ;
#245 = CARTESIAN_POINT ( 'NONE',  ( 0.0000000000000000000, 0.0000000000000000000, -30.50000000000000000 ) ) ;
#246 = ORIENTED_EDGE ( 'NONE', *, *, #317, .T. ) ;
#247 = DIRECTION ( 'NONE',  ( -1.000000000000000000, 0.0000000000000000000, 0.0000000000000000000 ) ) ;
#248 = EDGE_CURVE ( 'NONE', #258, #10, #30, .T. ) ;
#249 = DIRECTION ( 'NONE',  ( 1.000000000000000000, 0.0000000000000000000, 0.0000000000000000000 ) ) ;
#250 = CARTESIAN_POINT ( 'NONE',  ( 0.0000000000000000000, -0.9772077015420999047, -31.48055039467000071 ) ) ;
#251 = LINE ( 'NONE', #97, #298 ) ;
#252 = ORIENTED_EDGE ( 'NONE', *, *, #295, .F. ) ;
#253 = DIRECTION ( 'NONE',  ( -1.000000000000000000, 0.0000000000000000000, 0.0000000000000000000 ) ) ;
#254 = ADVANCED_FACE ( 'NONE', ( #312 ), #58, .F. ) ;
#255 = DIRECTION ( 'NONE',  ( 0.0000000000000000000, 1.000000000000000000, 0.0000000000000000000 ) ) ;
#256 = LOCAL_TIME ( 8, 44, 14.00000000000000000, #315 ) ;
#257 = PERSON_AND_ORGANIZATION_ROLE ( 'creator' ) ;
#258 = VERTEX_POINT ( 'NONE', #156 ) ;
#259 = DATE_AND_TIME ( #292, #256 ) ;
#260 = CARTESIAN_POINT ( 'NONE',  ( 0.0000000000000000000, 1.224646799146999965E-14, 0.0000000000000000000 ) ) ;
#261 = LINE ( 'NONE', #94, #207 ) ;
#262 = EDGE_LOOP ( 'NONE', ( #120, #174, #129, #236, #144, #50, #80 ) ) ;
#263 = EDGE_CURVE ( 'NONE', #41, #310, #186, .T. ) ;
#264 = CIRCLE ( 'NONE', #113, 109.7719999999999914 ) ;
#265 = EDGE_LOOP ( 'NONE', ( #165, #252, #135 ) ) ;
#266 = CONICAL_SURFACE ( 'NONE', #7, 31.39999999999999858, 1.047197551196400456 ) ;
#267 = ORIENTED_EDGE ( 'NONE', *, *, #147, .T. ) ;
#268 = CARTESIAN_POINT ( 'NONE',  ( -0.7204760492941999495, 1.233470086023999879E-14, 0.0000000000000000000 ) ) ;
#269 = LINE ( 'NONE', #52, #93 ) ;
#270 = ORIENTED_EDGE ( 'NONE', *, *, #235, .F. ) ;
#271 = DIRECTION ( 'NONE',  ( -1.000000000000000000, 0.0000000000000000000, 0.0000000000000000000 ) ) ;
#272 = DIRECTION ( 'NONE',  ( -0.5000000000000169864, -0.8660254037844288266, 0.0000000000000000000 ) ) ;
#273 = AXIS2_PLACEMENT_3D ( 'NONE', #57, #105, #131 ) ;
#274 = DIRECTION ( 'NONE',  ( 0.0000000000000000000, 0.0000000000000000000, -1.000000000000000000 ) ) ;
#275 = CARTESIAN_POINT ( 'NONE',  ( 0.0000000000000000000, 0.0000000000000000000, -30.50000000000000000 ) ) ;
#276 = CYLINDRICAL_SURFACE ( 'NONE', #18, 32.00000000000000000 ) ;
#277 = VERTEX_POINT ( 'NONE', #179 ) ;
#278 = CARTESIAN_POINT ( 'NONE',  ( 5.832123145198179870, -0.7387203962460104911, -32.00000000000000000 ) ) ;
#279 = ADVANCED_FACE ( 'NONE', ( #63 ), #125, .T. ) ;
#280 = DIRECTION ( 'NONE',  ( -1.000000000000000000, 0.0000000000000000000, 0.0000000000000000000 ) ) ;
#281 = CARTESIAN_POINT ( 'NONE',  ( 14.40952098587999863, 1.048181061620999875E-14, 0.0000000000000000000 ) ) ;
#282 = EDGE_CURVE ( 'NONE', #64, #277, #8, .T. ) ;
#283 = FACE_OUTER_BOUND ( 'NONE', #59, .T. ) ;
#284 =( NAMED_UNIT ( * ) PLANE_ANGLE_UNIT ( ) SI_UNIT ( $, .RADIAN. ) );
#285 = ORGANIZATION ( 'UNSPECIFIED', 'UNSPECIFIED', '' ) ;
#286 = EDGE_LOOP ( 'NONE', ( #220, #270, #208, #55 ) ) ;
#287 = SPHERICAL_SURFACE ( 'NONE', #142, 109.7719999999999914 ) ;
#288 = AXIS2_PLACEMENT_3D ( 'NONE', #281, #107, #255 ) ;
#289 = CONICAL_SURFACE ( 'NONE', #108, 49.26922622307998267, 0.7853981633972997312 ) ;
#290 = EDGE_LOOP ( 'NONE', ( #194, #62, #126 ) ) ;
#291 = CARTESIAN_POINT ( 'NONE',  ( 14.40952098587999863, 30.80000000000000071, 0.0000000000000000000 ) ) ;
#292 = CALENDAR_DATE ( 2019, 17, 12 ) ;
#293 = CC_DESIGN_PERSON_AND_ORGANIZATION_ASSIGNMENT ( #241, #130, ( #104 ) ) ;
#294 = EDGE_LOOP ( 'NONE', ( #202, #87, #234, #43 ) ) ;
#295 = EDGE_CURVE ( 'NONE', #64, #139, #60, .T. ) ;
#296 = DIRECTION ( 'NONE',  ( 0.08175908589669182713, 0.0000000000000000000, 0.9966521217924223519 ) ) ;
#297 = CARTESIAN_POINT ( 'NONE',  ( 0.0000000000000000000, 1.224646799146999965E-14, 0.0000000000000000000 ) ) ;
#298 = VECTOR ( 'NONE', #151, 1000.000000000000114 ) ;
#299 = EDGE_LOOP ( 'NONE', ( #47, #229, #198, #100, #157 ) ) ;
#300 = CARTESIAN_POINT ( 'NONE',  ( 119.7720000000000056, 0.0000000000000000000, 0.0000000000000000000 ) ) ;
#301 = PERSON_AND_ORGANIZATION_ROLE ( 'classification_officer' ) ;
#302 = DIRECTION ( 'NONE',  ( 0.0000000000000000000, -0.04567336105735021051, -0.9989564275231052060 ) ) ;
#303 = ORIENTED_EDGE ( 'NONE', *, *, #21, .F. ) ;
#304 = CARTESIAN_POINT ( 'NONE',  ( 2.926556257579179476, -1.225810098582887253, -31.97738385044910459 ) ) ;
#305 = APPLICATION_CONTEXT ( 'configuration controlled 3d designs of mechanical parts and assemblies' ) ;
#306 = CARTESIAN_POINT ( 'NONE',  ( 0.0000000000000000000, 0.0000000000000000000, 0.0000000000000000000 ) ) ;
#307 = CC_DESIGN_DATE_AND_TIME_ASSIGNMENT ( #259, #230, ( #45 ) ) ;
#308 = APPROVAL_DATE_TIME ( #217, #226 ) ;
#309 = ORIENTED_EDGE ( 'NONE', *, *, #184, .T. ) ;
#310 = VERTEX_POINT ( 'NONE', #103 ) ;
#311 = ADVANCED_BREP_SHAPE_REPRESENTATION ( 'Web Model 11542_11542', ( #211, #210 ), #116 ) ;
#312 = FACE_OUTER_BOUND ( 'NONE', #290, .T. ) ;
#313 = DIRECTION ( 'NONE',  ( 1.000000000000000000, 0.0000000000000000000, 0.0000000000000000000 ) ) ;
#314 = DIRECTION ( 'NONE',  ( 0.0000000000000000000, 1.000000000000000000, 0.0000000000000000000 ) ) ;
#315 = COORDINATED_UNIVERSAL_TIME_OFFSET ( 5, 0, .BEHIND. ) ;
#316 = CARTESIAN_POINT ( 'NONE',  ( 119.7720000000000056, 0.0000000000000000000, 0.0000000000000000000 ) ) ;
#317 = EDGE_CURVE ( 'NONE', #41, #310, #264, .T. ) ;
ENDSEC;
END-ISO-10303-21;
