ISO-10303-21;
HEADER;
FILE_DESCRIPTION (( 'STEP AP203' ),
    '1' );
FILE_NAME ('Web Model 37688_39008.step',
    '2018-10-18T19:42:40',
    ( '' ),
    ( '' ),
    'SwSTEP 2.0',
    'SolidWorks 2016',
    '' );
FILE_SCHEMA (( 'CONFIG_CONTROL_DESIGN' ));
ENDSEC;

DATA;
#1 = ORIENTED_EDGE ( 'NONE', *, *, #143, .F. ) ;
#2 = EDGE_LOOP ( 'NONE', ( #1, #21 ) ) ;
#3 = COORDINATED_UNIVERSAL_TIME_OFFSET ( 5, 0, .BEHIND. ) ;
#4 = CARTESIAN_POINT ( 'NONE',  ( 6.349999999999999600, 7.776507174585692200E-016, 3.174999999999999800 ) ) ;
#5 = APPROVAL_ROLE ( '' ) ;
#6 = CC_DESIGN_PERSON_AND_ORGANIZATION_ASSIGNMENT ( #54, #164, ( #40 ) ) ;
#7 = DATE_TIME_ROLE ( 'classification_date' ) ;
#8 = DATE_AND_TIME ( #15, #98 ) ;
#9 = ORIENTED_EDGE ( 'NONE', *, *, #89, .T. ) ;
#10 = ORGANIZATION ( 'UNSPECIFIED', 'UNSPECIFIED', '' ) ;
#11 = ADVANCED_FACE ( 'NONE', ( #122 ), #77, .T. ) ;
#12 = CC_DESIGN_PERSON_AND_ORGANIZATION_ASSIGNMENT ( #154, #128, ( #156 ) ) ;
#13 = LOCAL_TIME ( 15, 42, 40.00000000000000000, #3 ) ;
#14 = LINE ( 'NONE', #144, #157 ) ;
#15 = CALENDAR_DATE ( 2018, 18, 10 ) ;
#16 = CLOSED_SHELL ( 'NONE', ( #11, #146, #48, #117 ) ) ;
#17 = CARTESIAN_POINT ( 'NONE',  ( 0.0000000000000000000, 0.0000000000000000000, 3.174999999999999800 ) ) ;
#18 = PLANE ( 'NONE',  #118 ) ;
#19 = CARTESIAN_POINT ( 'NONE',  ( 0.0000000000000000000, 0.0000000000000000000, 3.174999999999999800 ) ) ;
#20 =( LENGTH_UNIT ( ) NAMED_UNIT ( * ) SI_UNIT ( .MILLI., .METRE. ) );
#21 = ORIENTED_EDGE ( 'NONE', *, *, #138, .F. ) ;
#22 = APPROVAL_ROLE ( '' ) ;
#23 = PERSON_AND_ORGANIZATION_ROLE ( 'creator' ) ;
#24 = ADVANCED_BREP_SHAPE_REPRESENTATION ( 'Web Model 37688_39008', ( #34, #132 ), #80 ) ;
#25 = APPROVAL_ROLE ( '' ) ;
#26 = PERSON ( 'UNSPECIFIED', 'UNSPECIFIED', 'UNSPECIFIED', ('UNSPECIFIED'), ('UNSPECIFIED'), ('UNSPECIFIED') ) ;
#27 = APPROVAL_PERSON_ORGANIZATION ( #72, #31, #25 ) ;
#28 = COORDINATED_UNIVERSAL_TIME_OFFSET ( 5, 0, .BEHIND. ) ;
#29 = CIRCLE ( 'NONE', #136, 6.349999999999999600 ) ;
#30 = DIRECTION ( 'NONE',  ( -1.000000000000000000, 0.0000000000000000000, 0.0000000000000000000 ) ) ;
#31 = APPROVAL ( #58, 'UNSPECIFIED' ) ;
#32 = VERTEX_POINT ( 'NONE', #92 ) ;
#33 = DIRECTION ( 'NONE',  ( 0.0000000000000000000, 0.0000000000000000000, 1.000000000000000000 ) ) ;
#34 = MANIFOLD_SOLID_BREP ( 'Boss-Extrude1', #16 ) ;
#35 = APPLICATION_CONTEXT ( 'configuration controlled 3d designs of mechanical parts and assemblies' ) ;
#36 = LOCAL_TIME ( 15, 42, 40.00000000000000000, #28 ) ;
#37 = DIRECTION ( 'NONE',  ( 0.0000000000000000000, 0.0000000000000000000, 1.000000000000000000 ) ) ;
#38 = CARTESIAN_POINT ( 'NONE',  ( -6.349999999999999600, 0.0000000000000000000, 3.174999999999999800 ) ) ;
#39 = DIRECTION ( 'NONE',  ( 0.0000000000000000000, 0.0000000000000000000, 1.000000000000000000 ) ) ;
#40 = PRODUCT_DEFINITION_FORMATION_WITH_SPECIFIED_SOURCE ( 'ANY', '', #55, .NOT_KNOWN. ) ;
#41 = APPROVAL_PERSON_ORGANIZATION ( #46, #134, #5 ) ;
#42 = VECTOR ( 'NONE', #159, 1000.000000000000000 ) ;
#43 = APPROVAL_DATE_TIME ( #50, #31 ) ;
#44 = APPROVAL_STATUS ( 'not_yet_approved' ) ;
#45 = DIRECTION ( 'NONE',  ( 0.0000000000000000000, 0.0000000000000000000, 1.000000000000000000 ) ) ;
#46 = PERSON_AND_ORGANIZATION ( #26, #10 ) ;
#47 = UNCERTAINTY_MEASURE_WITH_UNIT (LENGTH_MEASURE( 1.000000000000000100E-005 ), #20, 'distance_accuracy_value', 'NONE');
#48 = ADVANCED_FACE ( 'NONE', ( #101 ), #65, .T. ) ;
#49 = AXIS2_PLACEMENT_3D ( 'NONE', #19, #160, #106 ) ;
#50 = DATE_AND_TIME ( #174, #13 ) ;
#51 = CC_DESIGN_PERSON_AND_ORGANIZATION_ASSIGNMENT ( #103, #23, ( #40 ) ) ;
#52 = ORIENTED_EDGE ( 'NONE', *, *, #89, .F. ) ;
#53 = DIRECTION ( 'NONE',  ( 0.0000000000000000000, 0.0000000000000000000, 1.000000000000000000 ) ) ;
#54 = PERSON_AND_ORGANIZATION ( #26, #10 ) ;
#55 = PRODUCT ( 'Web Model 37688_39008', 'Web Model 37688_39008', '', ( #82 ) ) ;
#56 = DIRECTION ( 'NONE',  ( 1.000000000000000000, 0.0000000000000000000, 0.0000000000000000000 ) ) ;
#57 = DATE_TIME_ROLE ( 'creation_date' ) ;
#58 = APPROVAL_STATUS ( 'not_yet_approved' ) ;
#59 = EDGE_LOOP ( 'NONE', ( #52, #153, #149, #112 ) ) ;
#60 = SECURITY_CLASSIFICATION ( '', '', #81 ) ;
#61 = LOCAL_TIME ( 15, 42, 40.00000000000000000, #133 ) ;
#62 = LINE ( 'NONE', #4, #42 ) ;
#63 = COORDINATED_UNIVERSAL_TIME_OFFSET ( 5, 0, .BEHIND. ) ;
#64 = EDGE_CURVE ( 'NONE', #151, #104, #14, .T. ) ;
#65 = PLANE ( 'NONE',  #167 ) ;
#66 = DIRECTION ( 'NONE',  ( 1.000000000000000000, 0.0000000000000000000, 0.0000000000000000000 ) ) ;
#67 = DIRECTION ( 'NONE',  ( 0.0000000000000000000, 0.0000000000000000000, 1.000000000000000000 ) ) ;
#68 = EDGE_LOOP ( 'NONE', ( #84, #9, #107, #163 ) ) ;
#69 = PERSON_AND_ORGANIZATION_ROLE ( 'design_owner' ) ;
#70 = CC_DESIGN_DATE_AND_TIME_ASSIGNMENT ( #83, #7, ( #60 ) ) ;
#71 =( NAMED_UNIT ( * ) PLANE_ANGLE_UNIT ( ) SI_UNIT ( $, .RADIAN. ) );
#72 = PERSON_AND_ORGANIZATION ( #26, #10 ) ;
#73 = ORIENTED_EDGE ( 'NONE', *, *, #95, .T. ) ;
#74 = CALENDAR_DATE ( 2018, 18, 10 ) ;
#75 = CC_DESIGN_APPROVAL ( #31, ( #60 ) ) ;
#76 = LOCAL_TIME ( 15, 42, 40.00000000000000000, #63 ) ;
#77 = CYLINDRICAL_SURFACE ( 'NONE', #130, 6.349999999999999600 ) ;
#78 = CARTESIAN_POINT ( 'NONE',  ( 0.0000000000000000000, 0.0000000000000000000, -3.174999999999999800 ) ) ;
#79 = APPROVAL_DATE_TIME ( #93, #168 ) ;
#80 =( GEOMETRIC_REPRESENTATION_CONTEXT ( 3 ) GLOBAL_UNCERTAINTY_ASSIGNED_CONTEXT ( ( #47 ) ) GLOBAL_UNIT_ASSIGNED_CONTEXT ( ( #20, #71, #94 ) ) REPRESENTATION_CONTEXT ( 'NONE', 'WORKASPACE' ) );
#81 = SECURITY_CLASSIFICATION_LEVEL ( 'unclassified' ) ;
#82 = MECHANICAL_CONTEXT ( 'NONE', #35, 'mechanical' ) ;
#83 = DATE_AND_TIME ( #166, #61 ) ;
#84 = ORIENTED_EDGE ( 'NONE', *, *, #155, .F. ) ;
#85 = CC_DESIGN_PERSON_AND_ORGANIZATION_ASSIGNMENT ( #115, #145, ( #60 ) ) ;
#86 = DIRECTION ( 'NONE',  ( 1.000000000000000000, 0.0000000000000000000, 0.0000000000000000000 ) ) ;
#87 = CYLINDRICAL_SURFACE ( 'NONE', #49, 6.349999999999999600 ) ;
#88 = APPROVAL_DATE_TIME ( #8, #134 ) ;
#89 = EDGE_CURVE ( 'NONE', #32, #135, #62, .T. ) ;
#90 = DESIGN_CONTEXT ( 'detailed design', #126, 'design' ) ;
#91 = DIRECTION ( 'NONE',  ( 0.0000000000000000000, 0.0000000000000000000, 1.000000000000000000 ) ) ;
#92 = CARTESIAN_POINT ( 'NONE',  ( 6.349999999999999600, 7.776507174585692200E-016, 3.174999999999999800 ) ) ;
#93 = DATE_AND_TIME ( #161, #76 ) ;
#94 =( NAMED_UNIT ( * ) SI_UNIT ( $, .STERADIAN. ) SOLID_ANGLE_UNIT ( ) );
#95 = EDGE_CURVE ( 'NONE', #151, #32, #116, .T. ) ;
#96 = APPLICATION_PROTOCOL_DEFINITION ( 'international standard', 'config_control_design', 1994, #35 ) ;
#97 = CIRCLE ( 'NONE', #109, 6.349999999999999600 ) ;
#98 = LOCAL_TIME ( 15, 42, 40.00000000000000000, #150 ) ;
#99 = FACE_OUTER_BOUND ( 'NONE', #59, .T. ) ;
#100 = PRODUCT_DEFINITION_SHAPE ( 'NONE', 'NONE',  #156 ) ;
#101 = FACE_OUTER_BOUND ( 'NONE', #140, .T. ) ;
#102 = AXIS2_PLACEMENT_3D ( 'NONE', #171, #53, #56 ) ;
#103 = PERSON_AND_ORGANIZATION ( #26, #10 ) ;
#104 = VERTEX_POINT ( 'NONE', #139 ) ;
#105 = CC_DESIGN_PERSON_AND_ORGANIZATION_ASSIGNMENT ( #137, #69, ( #55 ) ) ;
#106 = DIRECTION ( 'NONE',  ( -1.000000000000000000, 0.0000000000000000000, 0.0000000000000000000 ) ) ;
#107 = ORIENTED_EDGE ( 'NONE', *, *, #138, .T. ) ;
#108 = CARTESIAN_POINT ( 'NONE',  ( 6.349999999999999600, 7.776507174585692200E-016, -3.174999999999999800 ) ) ;
#109 = AXIS2_PLACEMENT_3D ( 'NONE', #114, #39, #86 ) ;
#110 = DIRECTION ( 'NONE',  ( 1.000000000000000000, 0.0000000000000000000, -0.0000000000000000000 ) ) ;
#111 = DATE_AND_TIME ( #74, #36 ) ;
#112 = ORIENTED_EDGE ( 'NONE', *, *, #143, .T. ) ;
#113 = APPLICATION_PROTOCOL_DEFINITION ( 'international standard', 'config_control_design', 1994, #126 ) ;
#114 = CARTESIAN_POINT ( 'NONE',  ( 0.0000000000000000000, 0.0000000000000000000, 3.174999999999999800 ) ) ;
#115 = PERSON_AND_ORGANIZATION ( #26, #10 ) ;
#116 = CIRCLE ( 'NONE', #102, 6.349999999999999600 ) ;
#117 = ADVANCED_FACE ( 'NONE', ( #175 ), #18, .F. ) ;
#118 = AXIS2_PLACEMENT_3D ( 'NONE', #78, #33, #125 ) ;
#119 = PERSON_AND_ORGANIZATION ( #26, #10 ) ;
#120 = ORIENTED_EDGE ( 'NONE', *, *, #155, .T. ) ;
#121 = APPROVAL_PERSON_ORGANIZATION ( #119, #168, #22 ) ;
#122 = FACE_OUTER_BOUND ( 'NONE', #68, .T. ) ;
#123 = DIRECTION ( 'NONE',  ( -0.0000000000000000000, -0.0000000000000000000, -1.000000000000000000 ) ) ;
#124 = AXIS2_PLACEMENT_3D ( 'NONE', #142, #91, #66 ) ;
#125 = DIRECTION ( 'NONE',  ( 1.000000000000000000, 0.0000000000000000000, -0.0000000000000000000 ) ) ;
#126 = APPLICATION_CONTEXT ( 'configuration controlled 3d designs of mechanical parts and assemblies' ) ;
#127 = CC_DESIGN_SECURITY_CLASSIFICATION ( #60, ( #40 ) ) ;
#128 = PERSON_AND_ORGANIZATION_ROLE ( 'creator' ) ;
#129 = CARTESIAN_POINT ( 'NONE',  ( 0.0000000000000000000, 0.0000000000000000000, 0.0000000000000000000 ) ) ;
#130 = AXIS2_PLACEMENT_3D ( 'NONE', #17, #141, #30 ) ;
#131 = CC_DESIGN_APPROVAL ( #134, ( #40 ) ) ;
#132 = AXIS2_PLACEMENT_3D ( 'NONE', #129, #37, #173 ) ;
#133 = COORDINATED_UNIVERSAL_TIME_OFFSET ( 5, 0, .BEHIND. ) ;
#134 = APPROVAL ( #148, 'UNSPECIFIED' ) ;
#135 = VERTEX_POINT ( 'NONE', #108 ) ;
#136 = AXIS2_PLACEMENT_3D ( 'NONE', #147, #45, #165 ) ;
#137 = PERSON_AND_ORGANIZATION ( #26, #10 ) ;
#138 = EDGE_CURVE ( 'NONE', #135, #104, #172, .T. ) ;
#139 = CARTESIAN_POINT ( 'NONE',  ( -6.349999999999999600, 0.0000000000000000000, -3.174999999999999800 ) ) ;
#140 = EDGE_LOOP ( 'NONE', ( #73, #120 ) ) ;
#141 = DIRECTION ( 'NONE',  ( -0.0000000000000000000, -0.0000000000000000000, -1.000000000000000000 ) ) ;
#142 = CARTESIAN_POINT ( 'NONE',  ( 0.0000000000000000000, 0.0000000000000000000, -3.174999999999999800 ) ) ;
#143 = EDGE_CURVE ( 'NONE', #104, #135, #29, .T. ) ;
#144 = CARTESIAN_POINT ( 'NONE',  ( -6.349999999999999600, 0.0000000000000000000, 3.174999999999999800 ) ) ;
#145 = PERSON_AND_ORGANIZATION_ROLE ( 'classification_officer' ) ;
#146 = ADVANCED_FACE ( 'NONE', ( #99 ), #87, .T. ) ;
#147 = CARTESIAN_POINT ( 'NONE',  ( 0.0000000000000000000, 0.0000000000000000000, -3.174999999999999800 ) ) ;
#148 = APPROVAL_STATUS ( 'not_yet_approved' ) ;
#149 = ORIENTED_EDGE ( 'NONE', *, *, #64, .T. ) ;
#150 = COORDINATED_UNIVERSAL_TIME_OFFSET ( 5, 0, .BEHIND. ) ;
#151 = VERTEX_POINT ( 'NONE', #38 ) ;
#152 = CC_DESIGN_APPROVAL ( #168, ( #156 ) ) ;
#153 = ORIENTED_EDGE ( 'NONE', *, *, #95, .F. ) ;
#154 = PERSON_AND_ORGANIZATION ( #26, #10 ) ;
#155 = EDGE_CURVE ( 'NONE', #32, #151, #97, .T. ) ;
#156 = PRODUCT_DEFINITION ( 'UNKNOWN', '', #40, #90 ) ;
#157 = VECTOR ( 'NONE', #123, 1000.000000000000000 ) ;
#158 = PRODUCT_RELATED_PRODUCT_CATEGORY ( 'detail', '', ( #55 ) ) ;
#159 = DIRECTION ( 'NONE',  ( -0.0000000000000000000, -0.0000000000000000000, -1.000000000000000000 ) ) ;
#160 = DIRECTION ( 'NONE',  ( -0.0000000000000000000, -0.0000000000000000000, -1.000000000000000000 ) ) ;
#161 = CALENDAR_DATE ( 2018, 18, 10 ) ;
#162 = CARTESIAN_POINT ( 'NONE',  ( 0.0000000000000000000, 0.0000000000000000000, 3.174999999999999800 ) ) ;
#163 = ORIENTED_EDGE ( 'NONE', *, *, #64, .F. ) ;
#164 = PERSON_AND_ORGANIZATION_ROLE ( 'design_supplier' ) ;
#165 = DIRECTION ( 'NONE',  ( 1.000000000000000000, 0.0000000000000000000, 0.0000000000000000000 ) ) ;
#166 = CALENDAR_DATE ( 2018, 18, 10 ) ;
#167 = AXIS2_PLACEMENT_3D ( 'NONE', #162, #67, #110 ) ;
#168 = APPROVAL ( #44, 'UNSPECIFIED' ) ;
#169 = SHAPE_DEFINITION_REPRESENTATION ( #100, #24 ) ;
#170 = CC_DESIGN_DATE_AND_TIME_ASSIGNMENT ( #111, #57, ( #156 ) ) ;
#171 = CARTESIAN_POINT ( 'NONE',  ( 0.0000000000000000000, 0.0000000000000000000, 3.174999999999999800 ) ) ;
#172 = CIRCLE ( 'NONE', #124, 6.349999999999999600 ) ;
#173 = DIRECTION ( 'NONE',  ( 1.000000000000000000, 0.0000000000000000000, 0.0000000000000000000 ) ) ;
#174 = CALENDAR_DATE ( 2018, 18, 10 ) ;
#175 = FACE_OUTER_BOUND ( 'NONE', #2, .T. ) ;
ENDSEC;
END-ISO-10303-21;
