ISO-10303-21;
HEADER;
FILE_DESCRIPTION (( 'STEP AP203' ),
    '1' );
FILE_NAME ('Web Model 48863_48867.step',
    '2017-04-26T16:43:16',
    ( '' ),
    ( '' ),
    'SwSTEP 2.0',
    'SolidWorks 2016',
    '' );
FILE_SCHEMA (( 'CONFIG_CONTROL_DESIGN' ));
ENDSEC;

DATA;
#1 = LINE ( 'NONE', #91, #40 ) ;
#2 = EDGE_CURVE ( 'NONE', #170, #67, #177, .T. ) ;
#3 = DIRECTION ( 'NONE',  ( -0.0000000000000000000, 0.0000000000000000000, 1.000000000000000000 ) ) ;
#4 = CARTESIAN_POINT ( 'NONE',  ( 0.0000000000000000000, -6.250000000000000000, 6.250000000000000000 ) ) ;
#5 = FACE_OUTER_BOUND ( 'NONE', #226, .T. ) ;
#6 = CARTESIAN_POINT ( 'NONE',  ( 6.250000000000000000, -6.250000000000000000, -6.250000000000000000 ) ) ;
#7 = EDGE_CURVE ( 'NONE', #178, #276, #126, .T. ) ;
#8 = PERSON_AND_ORGANIZATION ( #279, #95 ) ;
#9 = VERTEX_POINT ( 'NONE', #277 ) ;
#10 = ORIENTED_EDGE ( 'NONE', *, *, #165, .T. ) ;
#11 = AXIS2_PLACEMENT_3D ( 'NONE', #45, #142, #27 ) ;
#12 = DATE_TIME_ROLE ( 'creation_date' ) ;
#13 = APPROVAL ( #272, 'UNSPECIFIED' ) ;
#14 = PERSON_AND_ORGANIZATION ( #279, #95 ) ;
#15 = PRODUCT_DEFINITION_SHAPE ( 'NONE', 'NONE',  #212 ) ;
#16 = FACE_OUTER_BOUND ( 'NONE', #58, .T. ) ;
#17 = APPROVAL_DATE_TIME ( #253, #41 ) ;
#18 = DIRECTION ( 'NONE',  ( 1.000000000000000000, 0.0000000000000000000, 0.0000000000000000000 ) ) ;
#19 = ADVANCED_FACE ( 'NONE', ( #310 ), #123, .T. ) ;
#20 = VERTEX_POINT ( 'NONE', #155 ) ;
#21 = EDGE_LOOP ( 'NONE', ( #242, #210, #237 ) ) ;
#22 = LOCAL_TIME ( 12, 43, 16.00000000000000000, #293 ) ;
#23 = VECTOR ( 'NONE', #297, 1000.000000000000000 ) ;
#24 = EDGE_CURVE ( 'NONE', #170, #276, #223, .T. ) ;
#25 = CARTESIAN_POINT ( 'NONE',  ( -6.250000000000000000, 6.250000000000000000, 6.250000000000000000 ) ) ;
#26 = DIRECTION ( 'NONE',  ( 1.000000000000000000, 0.0000000000000000000, 0.0000000000000000000 ) ) ;
#27 = DIRECTION ( 'NONE',  ( 1.000000000000000000, 0.0000000000000000000, 0.0000000000000000000 ) ) ;
#28 = DESIGN_CONTEXT ( 'detailed design', #173, 'design' ) ;
#29 = CARTESIAN_POINT ( 'NONE',  ( -6.250000000000000000, 6.250000000000000000, -6.250000000000000000 ) ) ;
#30 = DIRECTION ( 'NONE',  ( -0.7071067811865474600, 0.7071067811865474600, 0.0000000000000000000 ) ) ;
#31 = PLANE ( 'NONE',  #320 ) ;
#32 = VECTOR ( 'NONE', #224, 1000.000000000000000 ) ;
#33 = DIRECTION ( 'NONE',  ( -0.7071067811865474600, 0.7071067811865474600, 0.0000000000000000000 ) ) ;
#34 = CARTESIAN_POINT ( 'NONE',  ( 0.0000000000000000000, 0.0000000000000000000, 6.250000000000000000 ) ) ;
#35 = EDGE_LOOP ( 'NONE', ( #149, #162, #234 ) ) ;
#36 = EDGE_CURVE ( 'NONE', #307, #9, #298, .T. ) ;
#37 = CLOSED_SHELL ( 'NONE', ( #130, #171, #207, #316, #75 ) ) ;
#38 = CARTESIAN_POINT ( 'NONE',  ( 6.250000000000000000, -6.250000000000000000, -6.250000000000000000 ) ) ;
#39 = APPROVAL_DATE_TIME ( #48, #274 ) ;
#40 = VECTOR ( 'NONE', #138, 1000.000000000000000 ) ;
#41 = APPROVAL ( #184, 'UNSPECIFIED' ) ;
#42 = EDGE_CURVE ( 'NONE', #9, #20, #83, .T. ) ;
#43 = DIRECTION ( 'NONE',  ( -0.0000000000000000000, 0.0000000000000000000, 1.000000000000000000 ) ) ;
#44 = EDGE_CURVE ( 'NONE', #178, #93, #148, .T. ) ;
#45 = CARTESIAN_POINT ( 'NONE',  ( 0.0000000000000000000, 0.0000000000000000000, 0.0000000000000000000 ) ) ;
#46 = LINE ( 'NONE', #295, #32 ) ;
#47 = DIRECTION ( 'NONE',  ( 0.0000000000000000000, 1.000000000000000000, 0.0000000000000000000 ) ) ;
#48 = DATE_AND_TIME ( #146, #22 ) ;
#49 = VECTOR ( 'NONE', #164, 1000.000000000000000 ) ;
#50 = VECTOR ( 'NONE', #244, 1000.000000000000100 ) ;
#51 = ORIENTED_EDGE ( 'NONE', *, *, #303, .F. ) ;
#52 = LINE ( 'NONE', #25, #153 ) ;
#53 = CARTESIAN_POINT ( 'NONE',  ( 0.0000000000000000000, 0.0000000000000000000, -6.250000000000000000 ) ) ;
#54 = PERSON_AND_ORGANIZATION ( #279, #95 ) ;
#55 = PRODUCT_RELATED_PRODUCT_CATEGORY ( 'detail', '', ( #256 ) ) ;
#56 = DIRECTION ( 'NONE',  ( 0.0000000000000000000, 1.000000000000000000, 0.0000000000000000000 ) ) ;
#57 = CARTESIAN_POINT ( 'NONE',  ( 0.0000000000000000000, 0.0000000000000000000, 6.250000000000000000 ) ) ;
#58 = EDGE_LOOP ( 'NONE', ( #292, #96, #74, #300 ) ) ;
#59 = VECTOR ( 'NONE', #163, 1000.000000000000000 ) ;
#60 = DIRECTION ( 'NONE',  ( 0.0000000000000000000, 1.000000000000000000, -0.0000000000000000000 ) ) ;
#61 = DIRECTION ( 'NONE',  ( 0.7071067811865474600, -0.7071067811865474600, 0.0000000000000000000 ) ) ;
#62 = EDGE_CURVE ( 'NONE', #133, #306, #309, .T. ) ;
#63 = CARTESIAN_POINT ( 'NONE',  ( 0.0000000000000000000, -6.250000000000000000, -6.250000000000000000 ) ) ;
#64 = ORIENTED_EDGE ( 'NONE', *, *, #120, .T. ) ;
#65 = PLANE ( 'NONE',  #179 ) ;
#66 = EDGE_CURVE ( 'NONE', #290, #93, #46, .T. ) ;
#67 = VERTEX_POINT ( 'NONE', #38 ) ;
#68 = CARTESIAN_POINT ( 'NONE',  ( 6.250000000000000000, -6.250000000000000000, 6.250000000000000000 ) ) ;
#69 = DIRECTION ( 'NONE',  ( 0.0000000000000000000, -0.0000000000000000000, 1.000000000000000000 ) ) ;
#70 = EDGE_CURVE ( 'NONE', #307, #250, #52, .T. ) ;
#71 = DIRECTION ( 'NONE',  ( 1.000000000000000000, 0.0000000000000000000, 0.0000000000000000000 ) ) ;
#72 = ORIENTED_EDGE ( 'NONE', *, *, #66, .T. ) ;
#73 = EDGE_LOOP ( 'NONE', ( #259, #64, #313 ) ) ;
#74 = ORIENTED_EDGE ( 'NONE', *, *, #66, .F. ) ;
#75 = ADVANCED_FACE ( 'NONE', ( #258 ), #65, .F. ) ;
#76 = ORIENTED_EDGE ( 'NONE', *, *, #229, .T. ) ;
#77 = AXIS2_PLACEMENT_3D ( 'NONE', #108, #157, #33 ) ;
#78 = DIRECTION ( 'NONE',  ( 1.000000000000000000, 0.0000000000000000000, 0.0000000000000000000 ) ) ;
#79 = APPROVAL_DATE_TIME ( #271, #13 ) ;
#80 = EDGE_LOOP ( 'NONE', ( #147, #220, #10, #231 ) ) ;
#81 = DIRECTION ( 'NONE',  ( -0.0000000000000000000, 0.0000000000000000000, 1.000000000000000000 ) ) ;
#82 = APPROVAL_STATUS ( 'not_yet_approved' ) ;
#83 = LINE ( 'NONE', #201, #236 ) ;
#84 = DIRECTION ( 'NONE',  ( 0.7071067811865474600, -0.7071067811865474600, 0.0000000000000000000 ) ) ;
#85 = COORDINATED_UNIVERSAL_TIME_OFFSET ( 5, 0, .BEHIND. ) ;
#86 = COORDINATED_UNIVERSAL_TIME_OFFSET ( 5, 0, .BEHIND. ) ;
#87 = DIRECTION ( 'NONE',  ( -0.0000000000000000000, -0.0000000000000000000, -1.000000000000000000 ) ) ;
#88 = AXIS2_PLACEMENT_3D ( 'NONE', #99, #56, #69 ) ;
#89 = CARTESIAN_POINT ( 'NONE',  ( 0.0000000000000000000, 0.0000000000000000000, -6.250000000000000000 ) ) ;
#90 = LINE ( 'NONE', #68, #127 ) ;
#91 = CARTESIAN_POINT ( 'NONE',  ( 6.250000000000000000, 6.250000000000000000, 6.250000000000000000 ) ) ;
#92 = ORIENTED_EDGE ( 'NONE', *, *, #198, .T. ) ;
#93 = VERTEX_POINT ( 'NONE', #278 ) ;
#94 = ORIENTED_EDGE ( 'NONE', *, *, #7, .F. ) ;
#95 = ORGANIZATION ( 'UNSPECIFIED', 'UNSPECIFIED', '' ) ;
#96 = ORIENTED_EDGE ( 'NONE', *, *, #219, .F. ) ;
#97 = ADVANCED_FACE ( 'NONE', ( #204 ), #194, .T. ) ;
#98 = APPLICATION_PROTOCOL_DEFINITION ( 'international standard', 'config_control_design', 1994, #139 ) ;
#99 = CARTESIAN_POINT ( 'NONE',  ( 0.0000000000000000000, 6.250000000000000000, 6.250000000000000000 ) ) ;
#100 = CARTESIAN_POINT ( 'NONE',  ( -0.0000000000000000000, 6.250000000000000000, -6.250000000000000000 ) ) ;
#101 = PRODUCT_DEFINITION_FORMATION_WITH_SPECIFIED_SOURCE ( 'ANY', '', #256, .NOT_KNOWN. ) ;
#102 = DIRECTION ( 'NONE',  ( -0.0000000000000000000, 0.0000000000000000000, 1.000000000000000000 ) ) ;
#103 = ORIENTED_EDGE ( 'NONE', *, *, #198, .F. ) ;
#104 = ORIENTED_EDGE ( 'NONE', *, *, #36, .F. ) ;
#105 = AXIS2_PLACEMENT_3D ( 'NONE', #304, #3, #214 ) ;
#106 = AXIS2_PLACEMENT_3D ( 'NONE', #270, #132, #192 ) ;
#107 = LOCAL_TIME ( 12, 43, 16.00000000000000000, #85 ) ;
#108 = CARTESIAN_POINT ( 'NONE',  ( 0.0000000000000000000, 0.0000000000000000000, 6.250000000000000000 ) ) ;
#109 = LINE ( 'NONE', #152, #50 ) ;
#110 = VECTOR ( 'NONE', #247, 1000.000000000000000 ) ;
#111 = PLANE ( 'NONE',  #267 ) ;
#112 = PLANE ( 'NONE',  #106 ) ;
#113 = VECTOR ( 'NONE', #221, 1000.000000000000000 ) ;
#114 = CC_DESIGN_APPROVAL ( #13, ( #286 ) ) ;
#115 = AXIS2_PLACEMENT_3D ( 'NONE', #34, #116, #30 ) ;
#116 = DIRECTION ( 'NONE',  ( 0.7071067811865475700, 0.7071067811865475700, -0.0000000000000000000 ) ) ;
#117 = DATE_AND_TIME ( #261, #233 ) ;
#118 = CARTESIAN_POINT ( 'NONE',  ( 0.0000000000000000000, 0.0000000000000000000, 6.250000000000000000 ) ) ;
#119 = UNCERTAINTY_MEASURE_WITH_UNIT (LENGTH_MEASURE( 1.000000000000000100E-005 ), #282, 'distance_accuracy_value', 'NONE');
#120 = EDGE_CURVE ( 'NONE', #276, #67, #109, .T. ) ;
#121 = CARTESIAN_POINT ( 'NONE',  ( -6.250000000000000000, 6.250000000000000000, 6.250000000000000000 ) ) ;
#122 = EDGE_LOOP ( 'NONE', ( #264, #213, #135, #248 ) ) ;
#123 = PLANE ( 'NONE',  #215 ) ;
#124 = PERSON_AND_ORGANIZATION ( #279, #95 ) ;
#125 = EDGE_CURVE ( 'NONE', #20, #306, #1, .T. ) ;
#126 = LINE ( 'NONE', #254, #23 ) ;
#127 = VECTOR ( 'NONE', #273, 1000.000000000000000 ) ;
#128 = APPROVAL_PERSON_ORGANIZATION ( #54, #274, #193 ) ;
#129 = DIRECTION ( 'NONE',  ( 0.7071067811865474600, -0.7071067811865474600, 0.0000000000000000000 ) ) ;
#130 = ADVANCED_FACE ( 'NONE', ( #5 ), #181, .F. ) ;
#131 = EDGE_CURVE ( 'NONE', #9, #133, #314, .T. ) ;
#132 = DIRECTION ( 'NONE',  ( -1.000000000000000000, 0.0000000000000000000, 0.0000000000000000000 ) ) ;
#133 = VERTEX_POINT ( 'NONE', #6 ) ;
#134 = LINE ( 'NONE', #100, #269 ) ;
#135 = ORIENTED_EDGE ( 'NONE', *, *, #42, .F. ) ;
#136 = VECTOR ( 'NONE', #61, 1000.000000000000100 ) ;
#137 = ORIENTED_EDGE ( 'NONE', *, *, #44, .T. ) ;
#138 = DIRECTION ( 'NONE',  ( -0.0000000000000000000, -0.0000000000000000000, -1.000000000000000000 ) ) ;
#139 = APPLICATION_CONTEXT ( 'configuration controlled 3d designs of mechanical parts and assemblies' ) ;
#140 = COORDINATED_UNIVERSAL_TIME_OFFSET ( 5, 0, .BEHIND. ) ;
#141 = CARTESIAN_POINT ( 'NONE',  ( -6.250000000000000000, 6.250000000000000000, -6.250000000000000000 ) ) ;
#142 = DIRECTION ( 'NONE',  ( 0.0000000000000000000, 0.0000000000000000000, 1.000000000000000000 ) ) ;
#143 = CARTESIAN_POINT ( 'NONE',  ( -6.250000000000000000, 0.0000000000000000000, 6.250000000000000000 ) ) ;
#144 =( NAMED_UNIT ( * ) SI_UNIT ( $, .STERADIAN. ) SOLID_ANGLE_UNIT ( ) );
#145 = PERSON_AND_ORGANIZATION_ROLE ( 'design_supplier' ) ;
#146 = CALENDAR_DATE ( 2017, 26, 4 ) ;
#147 = ORIENTED_EDGE ( 'NONE', *, *, #308, .F. ) ;
#148 = LINE ( 'NONE', #118, #136 ) ;
#149 = ORIENTED_EDGE ( 'NONE', *, *, #36, .T. ) ;
#150 = CC_DESIGN_SECURITY_CLASSIFICATION ( #286, ( #101 ) ) ;
#151 = CC_DESIGN_PERSON_AND_ORGANIZATION_ASSIGNMENT ( #8, #211, ( #212 ) ) ;
#152 = CARTESIAN_POINT ( 'NONE',  ( -0.0000000000000000000, 0.0000000000000000000, -6.250000000000000000 ) ) ;
#153 = VECTOR ( 'NONE', #87, 1000.000000000000000 ) ;
#154 = PERSON_AND_ORGANIZATION_ROLE ( 'classification_officer' ) ;
#155 = CARTESIAN_POINT ( 'NONE',  ( 6.250000000000000000, 6.250000000000000000, 6.250000000000000000 ) ) ;
#156 = FACE_OUTER_BOUND ( 'NONE', #182, .T. ) ;
#157 = DIRECTION ( 'NONE',  ( 0.7071067811865475700, 0.7071067811865475700, -0.0000000000000000000 ) ) ;
#158 = LOCAL_TIME ( 12, 43, 16.00000000000000000, #287 ) ;
#159 = ORIENTED_EDGE ( 'NONE', *, *, #120, .F. ) ;
#160 = CARTESIAN_POINT ( 'NONE',  ( 0.0000000000000000000, 6.250000000000000000, 6.250000000000000000 ) ) ;
#161 = CC_DESIGN_DATE_AND_TIME_ASSIGNMENT ( #117, #12, ( #212 ) ) ;
#162 = ORIENTED_EDGE ( 'NONE', *, *, #42, .T. ) ;
#163 = DIRECTION ( 'NONE',  ( 1.000000000000000000, 0.0000000000000000000, 0.0000000000000000000 ) ) ;
#164 = DIRECTION ( 'NONE',  ( 0.0000000000000000000, 1.000000000000000000, -0.0000000000000000000 ) ) ;
#165 = EDGE_CURVE ( 'NONE', #307, #20, #281, .T. ) ;
#166 = ORIENTED_EDGE ( 'NONE', *, *, #70, .T. ) ;
#167 = CARTESIAN_POINT ( 'NONE',  ( 6.250000000000000000, -6.250000000000000000, 6.250000000000000000 ) ) ;
#168 = CALENDAR_DATE ( 2017, 26, 4 ) ;
#169 = CC_DESIGN_PERSON_AND_ORGANIZATION_ASSIGNMENT ( #228, #145, ( #101 ) ) ;
#170 = VERTEX_POINT ( 'NONE', #222 ) ;
#171 = ADVANCED_FACE ( 'NONE', ( #311 ), #112, .F. ) ;
#172 = SHAPE_DEFINITION_REPRESENTATION ( #15, #266 ) ;
#173 = APPLICATION_CONTEXT ( 'configuration controlled 3d designs of mechanical parts and assemblies' ) ;
#174 = CC_DESIGN_PERSON_AND_ORGANIZATION_ASSIGNMENT ( #206, #186, ( #256 ) ) ;
#175 = DIRECTION ( 'NONE',  ( -0.0000000000000000000, -0.0000000000000000000, -1.000000000000000000 ) ) ;
#176 = APPROVAL_PERSON_ORGANIZATION ( #318, #13, #232 ) ;
#177 = LINE ( 'NONE', #63, #59 ) ;
#178 = VERTEX_POINT ( 'NONE', #217 ) ;
#179 = AXIS2_PLACEMENT_3D ( 'NONE', #89, #81, #78 ) ;
#180 = ORIENTED_EDGE ( 'NONE', *, *, #131, .F. ) ;
#181 = PLANE ( 'NONE',  #115 ) ;
#182 = EDGE_LOOP ( 'NONE', ( #159, #94, #137, #203 ) ) ;
#183 = CARTESIAN_POINT ( 'NONE',  ( 6.250000000000000000, 0.0000000000000000000, -6.250000000000000000 ) ) ;
#184 = APPROVAL_STATUS ( 'not_yet_approved' ) ;
#185 = PLANE ( 'NONE',  #88 ) ;
#186 = PERSON_AND_ORGANIZATION_ROLE ( 'design_owner' ) ;
#187 = CC_DESIGN_APPROVAL ( #274, ( #101 ) ) ;
#188 = LINE ( 'NONE', #280, #49 ) ;
#189 = MANIFOLD_SOLID_BREP ( 'Boss-Extrude3', #37 ) ;
#190 = VECTOR ( 'NONE', #175, 1000.000000000000000 ) ;
#191 = LINE ( 'NONE', #312, #285 ) ;
#192 = DIRECTION ( 'NONE',  ( 0.0000000000000000000, 0.0000000000000000000, 1.000000000000000000 ) ) ;
#193 = APPROVAL_ROLE ( '' ) ;
#194 = PLANE ( 'NONE',  #239 ) ;
#195 = FACE_OUTER_BOUND ( 'NONE', #35, .T. ) ;
#196 = DIRECTION ( 'NONE',  ( 0.0000000000000000000, 0.0000000000000000000, 1.000000000000000000 ) ) ;
#197 = ORIENTED_EDGE ( 'NONE', *, *, #24, .F. ) ;
#198 = EDGE_CURVE ( 'NONE', #290, #178, #188, .T. ) ;
#199 = CARTESIAN_POINT ( 'NONE',  ( -6.250000000000000000, -6.250000000000000000, 6.250000000000000000 ) ) ;
#200 = SECURITY_CLASSIFICATION_LEVEL ( 'unclassified' ) ;
#201 = CARTESIAN_POINT ( 'NONE',  ( 6.250000000000000000, 0.0000000000000000000, 6.250000000000000000 ) ) ;
#202 = LINE ( 'NONE', #257, #263 ) ;
#203 = ORIENTED_EDGE ( 'NONE', *, *, #219, .T. ) ;
#204 = FACE_OUTER_BOUND ( 'NONE', #319, .T. ) ;
#205 = CC_DESIGN_PERSON_AND_ORGANIZATION_ASSIGNMENT ( #14, #154, ( #286 ) ) ;
#206 = PERSON_AND_ORGANIZATION ( #279, #95 ) ;
#207 = ADVANCED_FACE ( 'NONE', ( #291 ), #185, .T. ) ;
#208 = PLANE ( 'NONE',  #77 ) ;
#209 = DATE_AND_TIME ( #168, #107 ) ;
#210 = ORIENTED_EDGE ( 'NONE', *, *, #308, .T. ) ;
#211 = PERSON_AND_ORGANIZATION_ROLE ( 'creator' ) ;
#212 = PRODUCT_DEFINITION ( 'UNKNOWN', '', #101, #28 ) ;
#213 = ORIENTED_EDGE ( 'NONE', *, *, #125, .F. ) ;
#214 = DIRECTION ( 'NONE',  ( 1.000000000000000000, 0.0000000000000000000, 0.0000000000000000000 ) ) ;
#215 = AXIS2_PLACEMENT_3D ( 'NONE', #143, #275, #196 ) ;
#216 = APPLICATION_PROTOCOL_DEFINITION ( 'international standard', 'config_control_design', 1994, #173 ) ;
#217 = CARTESIAN_POINT ( 'NONE',  ( -6.250000000000000000, 6.250000000000000000, 6.250000000000000000 ) ) ;
#218 = PERSON_AND_ORGANIZATION ( #279, #95 ) ;
#219 = EDGE_CURVE ( 'NONE', #93, #67, #90, .T. ) ;
#220 = ORIENTED_EDGE ( 'NONE', *, *, #70, .F. ) ;
#221 = DIRECTION ( 'NONE',  ( 0.0000000000000000000, 1.000000000000000000, -0.0000000000000000000 ) ) ;
#222 = CARTESIAN_POINT ( 'NONE',  ( -6.250000000000000000, -6.250000000000000000, -6.250000000000000000 ) ) ;
#223 = LINE ( 'NONE', #225, #110 ) ;
#224 = DIRECTION ( 'NONE',  ( 1.000000000000000000, 0.0000000000000000000, 0.0000000000000000000 ) ) ;
#225 = CARTESIAN_POINT ( 'NONE',  ( -6.250000000000000000, 0.0000000000000000000, -6.250000000000000000 ) ) ;
#226 = EDGE_LOOP ( 'NONE', ( #76, #180, #104, #166 ) ) ;
#227 = ADVANCED_FACE ( 'NONE', ( #156 ), #208, .T. ) ;
#228 = PERSON_AND_ORGANIZATION ( #279, #95 ) ;
#229 = EDGE_CURVE ( 'NONE', #250, #133, #202, .T. ) ;
#230 = DIRECTION ( 'NONE',  ( -0.0000000000000000000, -0.0000000000000000000, -1.000000000000000000 ) ) ;
#231 = ORIENTED_EDGE ( 'NONE', *, *, #125, .T. ) ;
#232 = APPROVAL_ROLE ( '' ) ;
#233 = LOCAL_TIME ( 12, 43, 16.00000000000000000, #140 ) ;
#234 = ORIENTED_EDGE ( 'NONE', *, *, #165, .F. ) ;
#235 = CC_DESIGN_DATE_AND_TIME_ASSIGNMENT ( #209, #321, ( #286 ) ) ;
#236 = VECTOR ( 'NONE', #60, 1000.000000000000000 ) ;
#237 = ORIENTED_EDGE ( 'NONE', *, *, #62, .F. ) ;
#238 = ORIENTED_EDGE ( 'NONE', *, *, #44, .F. ) ;
#239 = AXIS2_PLACEMENT_3D ( 'NONE', #243, #102, #18 ) ;
#240 = APPROVAL_ROLE ( '' ) ;
#241 =( NAMED_UNIT ( * ) PLANE_ANGLE_UNIT ( ) SI_UNIT ( $, .RADIAN. ) );
#242 = ORIENTED_EDGE ( 'NONE', *, *, #229, .F. ) ;
#243 = CARTESIAN_POINT ( 'NONE',  ( 0.0000000000000000000, 0.0000000000000000000, 6.250000000000000000 ) ) ;
#244 = DIRECTION ( 'NONE',  ( 0.7071067811865474600, -0.7071067811865474600, 0.0000000000000000000 ) ) ;
#245 = CC_DESIGN_APPROVAL ( #41, ( #212 ) ) ;
#246 = CARTESIAN_POINT ( 'NONE',  ( 6.250000000000000000, 6.250000000000000000, -6.250000000000000000 ) ) ;
#247 = DIRECTION ( 'NONE',  ( 0.0000000000000000000, 1.000000000000000000, -0.0000000000000000000 ) ) ;
#248 = ORIENTED_EDGE ( 'NONE', *, *, #131, .T. ) ;
#249 = PERSON_AND_ORGANIZATION_ROLE ( 'creator' ) ;
#250 = VERTEX_POINT ( 'NONE', #141 ) ;
#251 = DIRECTION ( 'NONE',  ( 0.0000000000000000000, -0.0000000000000000000, 1.000000000000000000 ) ) ;
#252 = MANIFOLD_SOLID_BREP ( 'Boss-Extrude2', #283 ) ;
#253 = DATE_AND_TIME ( #284, #158 ) ;
#254 = CARTESIAN_POINT ( 'NONE',  ( -6.250000000000000000, 6.250000000000000000, 6.250000000000000000 ) ) ;
#255 = MECHANICAL_CONTEXT ( 'NONE', #139, 'mechanical' ) ;
#256 = PRODUCT ( 'Web Model 48863_48867', 'Web Model 48863_48867', '', ( #255 ) ) ;
#257 = CARTESIAN_POINT ( 'NONE',  ( -0.0000000000000000000, 0.0000000000000000000, -6.250000000000000000 ) ) ;
#258 = FACE_OUTER_BOUND ( 'NONE', #21, .T. ) ;
#259 = ORIENTED_EDGE ( 'NONE', *, *, #24, .T. ) ;
#260 = PLANE ( 'NONE',  #105 ) ;
#261 = CALENDAR_DATE ( 2017, 26, 4 ) ;
#262 = CALENDAR_DATE ( 2017, 26, 4 ) ;
#263 = VECTOR ( 'NONE', #129, 1000.000000000000100 ) ;
#264 = ORIENTED_EDGE ( 'NONE', *, *, #62, .T. ) ;
#265 = CC_DESIGN_PERSON_AND_ORGANIZATION_ASSIGNMENT ( #218, #249, ( #101 ) ) ;
#266 = ADVANCED_BREP_SHAPE_REPRESENTATION ( 'Web Model 48863_48867', ( #252, #189, #11 ), #296 ) ;
#267 = AXIS2_PLACEMENT_3D ( 'NONE', #4, #47, #251 ) ;
#268 = VECTOR ( 'NONE', #84, 1000.000000000000100 ) ;
#269 = VECTOR ( 'NONE', #315, 1000.000000000000000 ) ;
#270 = CARTESIAN_POINT ( 'NONE',  ( 6.250000000000000000, 0.0000000000000000000, 6.250000000000000000 ) ) ;
#271 = DATE_AND_TIME ( #262, #317 ) ;
#272 = APPROVAL_STATUS ( 'not_yet_approved' ) ;
#273 = DIRECTION ( 'NONE',  ( -0.0000000000000000000, -0.0000000000000000000, -1.000000000000000000 ) ) ;
#274 = APPROVAL ( #82, 'UNSPECIFIED' ) ;
#275 = DIRECTION ( 'NONE',  ( -1.000000000000000000, 0.0000000000000000000, 0.0000000000000000000 ) ) ;
#276 = VERTEX_POINT ( 'NONE', #29 ) ;
#277 = CARTESIAN_POINT ( 'NONE',  ( 6.250000000000000000, -6.250000000000000000, 6.250000000000000000 ) ) ;
#278 = CARTESIAN_POINT ( 'NONE',  ( 6.250000000000000000, -6.250000000000000000, 6.250000000000000000 ) ) ;
#279 = PERSON ( 'UNSPECIFIED', 'UNSPECIFIED', 'UNSPECIFIED', ('UNSPECIFIED'), ('UNSPECIFIED'), ('UNSPECIFIED') ) ;
#280 = CARTESIAN_POINT ( 'NONE',  ( -6.250000000000000000, 0.0000000000000000000, 6.250000000000000000 ) ) ;
#281 = LINE ( 'NONE', #160, #305 ) ;
#282 =( LENGTH_UNIT ( ) NAMED_UNIT ( * ) SI_UNIT ( .MILLI., .METRE. ) );
#283 = CLOSED_SHELL ( 'NONE', ( #19, #294, #227, #97, #288 ) ) ;
#284 = CALENDAR_DATE ( 2017, 26, 4 ) ;
#285 = VECTOR ( 'NONE', #230, 1000.000000000000000 ) ;
#286 = SECURITY_CLASSIFICATION ( '', '', #200 ) ;
#287 = COORDINATED_UNIVERSAL_TIME_OFFSET ( 5, 0, .BEHIND. ) ;
#288 = ADVANCED_FACE ( 'NONE', ( #289 ), #31, .F. ) ;
#289 = FACE_OUTER_BOUND ( 'NONE', #73, .T. ) ;
#290 = VERTEX_POINT ( 'NONE', #199 ) ;
#291 = FACE_OUTER_BOUND ( 'NONE', #80, .T. ) ;
#292 = ORIENTED_EDGE ( 'NONE', *, *, #2, .T. ) ;
#293 = COORDINATED_UNIVERSAL_TIME_OFFSET ( 5, 0, .BEHIND. ) ;
#294 = ADVANCED_FACE ( 'NONE', ( #16 ), #111, .F. ) ;
#295 = CARTESIAN_POINT ( 'NONE',  ( 0.0000000000000000000, -6.250000000000000000, 6.250000000000000000 ) ) ;
#296 =( GEOMETRIC_REPRESENTATION_CONTEXT ( 3 ) GLOBAL_UNCERTAINTY_ASSIGNED_CONTEXT ( ( #119 ) ) GLOBAL_UNIT_ASSIGNED_CONTEXT ( ( #282, #241, #144 ) ) REPRESENTATION_CONTEXT ( 'NONE', 'WORKASPACE' ) );
#297 = DIRECTION ( 'NONE',  ( -0.0000000000000000000, -0.0000000000000000000, -1.000000000000000000 ) ) ;
#298 = LINE ( 'NONE', #57, #268 ) ;
#299 = EDGE_LOOP ( 'NONE', ( #197, #51, #92, #301 ) ) ;
#300 = ORIENTED_EDGE ( 'NONE', *, *, #303, .T. ) ;
#301 = ORIENTED_EDGE ( 'NONE', *, *, #7, .T. ) ;
#302 = APPROVAL_PERSON_ORGANIZATION ( #124, #41, #240 ) ;
#303 = EDGE_CURVE ( 'NONE', #290, #170, #191, .T. ) ;
#304 = CARTESIAN_POINT ( 'NONE',  ( 0.0000000000000000000, 0.0000000000000000000, 6.250000000000000000 ) ) ;
#305 = VECTOR ( 'NONE', #26, 1000.000000000000000 ) ;
#306 = VERTEX_POINT ( 'NONE', #246 ) ;
#307 = VERTEX_POINT ( 'NONE', #121 ) ;
#308 = EDGE_CURVE ( 'NONE', #250, #306, #134, .T. ) ;
#309 = LINE ( 'NONE', #183, #113 ) ;
#310 = FACE_OUTER_BOUND ( 'NONE', #299, .T. ) ;
#311 = FACE_OUTER_BOUND ( 'NONE', #122, .T. ) ;
#312 = CARTESIAN_POINT ( 'NONE',  ( -6.250000000000000000, -6.250000000000000000, 6.250000000000000000 ) ) ;
#313 = ORIENTED_EDGE ( 'NONE', *, *, #2, .F. ) ;
#314 = LINE ( 'NONE', #167, #190 ) ;
#315 = DIRECTION ( 'NONE',  ( 1.000000000000000000, 0.0000000000000000000, 0.0000000000000000000 ) ) ;
#316 = ADVANCED_FACE ( 'NONE', ( #195 ), #260, .T. ) ;
#317 = LOCAL_TIME ( 12, 43, 16.00000000000000000, #86 ) ;
#318 = PERSON_AND_ORGANIZATION ( #279, #95 ) ;
#319 = EDGE_LOOP ( 'NONE', ( #103, #72, #238 ) ) ;
#320 = AXIS2_PLACEMENT_3D ( 'NONE', #53, #43, #71 ) ;
#321 = DATE_TIME_ROLE ( 'classification_date' ) ;
ENDSEC;
END-ISO-10303-21;
