ISO-10303-21;
HEADER;
FILE_DESCRIPTION (( 'STEP AP203' ),
    '1' );
FILE_NAME ('Web Model 47193_13332.step',
    '2020-11-04T13:56:07',
    ( '' ),
    ( '' ),
    'SwSTEP 2.0',
    'SolidWorks 2018',
    '' );
FILE_SCHEMA (( 'CONFIG_CONTROL_DESIGN' ));
ENDSEC;

DATA;
#1 = COORDINATED_UNIVERSAL_TIME_OFFSET ( 5, 0, .BEHIND. ) ;
#2 = DIRECTION ( 'NONE',  ( 0.0000000000000000000, 0.0000000000000000000, 1.000000000000000000 ) ) ;
#3 = CARTESIAN_POINT ( 'NONE',  ( -6.249999999999998224, 7.654042494670955634E-16, 0.0000000000000000000 ) ) ;
#4 = PRODUCT_DEFINITION_SHAPE ( 'NONE', 'NONE',  #80 ) ;
#5 = PERSON_AND_ORGANIZATION ( #55, #83 ) ;
#6 = EDGE_CURVE ( 'NONE', #112, #85, #111, .T. ) ;
#7 = DIRECTION ( 'NONE',  ( 1.000000000000000000, 0.0000000000000000000, 0.0000000000000000000 ) ) ;
#8 = CARTESIAN_POINT ( 'NONE',  ( 0.0000000000000000000, 0.0000000000000000000, 0.0000000000000000000 ) ) ;
#9 = CLOSED_SHELL ( 'NONE', ( #67, #81, #162, #39 ) ) ;
#10 = PERSON_AND_ORGANIZATION ( #55, #83 ) ;
#11 = CC_DESIGN_DATE_AND_TIME_ASSIGNMENT ( #65, #136, ( #80 ) ) ;
#12 = CALENDAR_DATE ( 2020, 4, 11 ) ;
#13 = COORDINATED_UNIVERSAL_TIME_OFFSET ( 5, 0, .BEHIND. ) ;
#14 = DIRECTION ( 'NONE',  ( 1.000000000000000000, 0.0000000000000000000, 0.0000000000000000000 ) ) ;
#15 = ORIENTED_EDGE ( 'NONE', *, *, #23, .F. ) ;
#16 = DIRECTION ( 'NONE',  ( 0.0000000000000000000, 0.0000000000000000000, 1.000000000000000000 ) ) ;
#17 = PERSON_AND_ORGANIZATION ( #55, #83 ) ;
#18 = PERSON_AND_ORGANIZATION ( #55, #83 ) ;
#19 = PERSON_AND_ORGANIZATION_ROLE ( 'creator' ) ;
#20 =( NAMED_UNIT ( * ) SI_UNIT ( $, .STERADIAN. ) SOLID_ANGLE_UNIT ( ) );
#21 = FACE_OUTER_BOUND ( 'NONE', #96, .T. ) ;
#22 =( LENGTH_UNIT ( ) NAMED_UNIT ( * ) SI_UNIT ( .MILLI., .METRE. ) );
#23 = EDGE_CURVE ( 'NONE', #112, #152, #41, .T. ) ;
#24 = LOCAL_TIME ( 8, 56, 7.000000000000000000, #25 ) ;
#25 = COORDINATED_UNIVERSAL_TIME_OFFSET ( 5, 0, .BEHIND. ) ;
#26 = CYLINDRICAL_SURFACE ( 'NONE', #47, 6.249999999999998224 ) ;
#27 = AXIS2_PLACEMENT_3D ( 'NONE', #144, #156, #90 ) ;
#28 = APPROVAL_DATE_TIME ( #135, #154 ) ;
#29 = EDGE_LOOP ( 'NONE', ( #107, #103 ) ) ;
#30 = CARTESIAN_POINT ( 'NONE',  ( 0.0000000000000000000, 0.0000000000000000000, -1.500000000000000000 ) ) ;
#31 = CC_DESIGN_APPROVAL ( #151, ( #141 ) ) ;
#32 = CARTESIAN_POINT ( 'NONE',  ( 6.249999999999998224, 0.0000000000000000000, -1.500000000000000000 ) ) ;
#33 = COORDINATED_UNIVERSAL_TIME_OFFSET ( 5, 0, .BEHIND. ) ;
#34 = EDGE_CURVE ( 'NONE', #123, #85, #76, .T. ) ;
#35 = DIRECTION ( 'NONE',  ( 1.000000000000000000, 0.0000000000000000000, 0.0000000000000000000 ) ) ;
#36 = DIRECTION ( 'NONE',  ( 0.0000000000000000000, 0.0000000000000000000, 1.000000000000000000 ) ) ;
#37 = PERSON_AND_ORGANIZATION_ROLE ( 'design_supplier' ) ;
#38 = CALENDAR_DATE ( 2020, 4, 11 ) ;
#39 = ADVANCED_FACE ( 'NONE', ( #92 ), #146, .T. ) ;
#40 = APPROVAL_STATUS ( 'not_yet_approved' ) ;
#41 = CIRCLE ( 'NONE', #27, 6.249999999999998224 ) ;
#42 = AXIS2_PLACEMENT_3D ( 'NONE', #145, #2, #128 ) ;
#43 = AXIS2_PLACEMENT_3D ( 'NONE', #113, #16, #35 ) ;
#44 = ORIENTED_EDGE ( 'NONE', *, *, #165, .T. ) ;
#45 = ORIENTED_EDGE ( 'NONE', *, *, #6, .F. ) ;
#46 = CC_DESIGN_PERSON_AND_ORGANIZATION_ASSIGNMENT ( #5, #119, ( #86 ) ) ;
#47 = AXIS2_PLACEMENT_3D ( 'NONE', #48, #171, #7 ) ;
#48 = CARTESIAN_POINT ( 'NONE',  ( 0.0000000000000000000, 0.0000000000000000000, -1.500000000000000000 ) ) ;
#49 =( NAMED_UNIT ( * ) PLANE_ANGLE_UNIT ( ) SI_UNIT ( $, .RADIAN. ) );
#50 = PERSON_AND_ORGANIZATION_ROLE ( 'classification_officer' ) ;
#51 = PERSON_AND_ORGANIZATION_ROLE ( 'creator' ) ;
#52 = APPROVAL ( #117, 'UNSPECIFIED' ) ;
#53 = APPROVAL_PERSON_ORGANIZATION ( #18, #52, #147 ) ;
#54 = EDGE_LOOP ( 'NONE', ( #15, #71 ) ) ;
#55 = PERSON ( 'UNSPECIFIED', 'UNSPECIFIED', 'UNSPECIFIED', ('UNSPECIFIED'), ('UNSPECIFIED'), ('UNSPECIFIED') ) ;
#56 = AXIS2_PLACEMENT_3D ( 'NONE', #172, #36, #116 ) ;
#57 = FACE_OUTER_BOUND ( 'NONE', #54, .T. ) ;
#58 = CALENDAR_DATE ( 2020, 4, 11 ) ;
#59 = CARTESIAN_POINT ( 'NONE',  ( 6.249999999999998224, 0.0000000000000000000, -1.500000000000000000 ) ) ;
#60 = CIRCLE ( 'NONE', #87, 6.249999999999998224 ) ;
#61 = AXIS2_PLACEMENT_3D ( 'NONE', #157, #104, #108 ) ;
#62 = CARTESIAN_POINT ( 'NONE',  ( -6.249999999999998224, 7.654042494670955634E-16, -1.500000000000000000 ) ) ;
#63 = APPROVAL_PERSON_ORGANIZATION ( #10, #154, #150 ) ;
#64 = APPLICATION_PROTOCOL_DEFINITION ( 'international standard', 'config_control_design', 1994, #174 ) ;
#65 = DATE_AND_TIME ( #70, #24 ) ;
#66 = FACE_OUTER_BOUND ( 'NONE', #143, .T. ) ;
#67 = ADVANCED_FACE ( 'NONE', ( #21 ), #26, .T. ) ;
#68 = APPROVAL_ROLE ( '' ) ;
#69 = AXIS2_PLACEMENT_3D ( 'NONE', #30, #115, #14 ) ;
#70 = CALENDAR_DATE ( 2020, 4, 11 ) ;
#71 = ORIENTED_EDGE ( 'NONE', *, *, #165, .F. ) ;
#72 = LOCAL_TIME ( 8, 56, 7.000000000000000000, #1 ) ;
#73 = CYLINDRICAL_SURFACE ( 'NONE', #69, 6.249999999999998224 ) ;
#74 = CARTESIAN_POINT ( 'NONE',  ( 6.249999999999998224, 0.0000000000000000000, 0.0000000000000000000 ) ) ;
#75 = DIRECTION ( 'NONE',  ( 0.0000000000000000000, 0.0000000000000000000, 1.000000000000000000 ) ) ;
#76 = CIRCLE ( 'NONE', #43, 6.249999999999998224 ) ;
#77 = AXIS2_PLACEMENT_3D ( 'NONE', #8, #134, #94 ) ;
#78 = DIRECTION ( 'NONE',  ( 0.0000000000000000000, 0.0000000000000000000, 1.000000000000000000 ) ) ;
#79 = ORIENTED_EDGE ( 'NONE', *, *, #139, .T. ) ;
#80 = PRODUCT_DEFINITION ( 'UNKNOWN', '', #114, #159 ) ;
#81 = ADVANCED_FACE ( 'NONE', ( #66 ), #73, .T. ) ;
#82 = APPLICATION_PROTOCOL_DEFINITION ( 'international standard', 'config_control_design', 1994, #163 ) ;
#83 = ORGANIZATION ( 'UNSPECIFIED', 'UNSPECIFIED', '' ) ;
#84 = CC_DESIGN_PERSON_AND_ORGANIZATION_ASSIGNMENT ( #175, #37, ( #114 ) ) ;
#85 = VERTEX_POINT ( 'NONE', #74 ) ;
#86 = PRODUCT ( 'Web Model 47193_13332', 'Web Model 47193_13332', '', ( #105 ) ) ;
#87 = AXIS2_PLACEMENT_3D ( 'NONE', #95, #109, #132 ) ;
#88 = APPROVAL_PERSON_ORGANIZATION ( #138, #151, #68 ) ;
#89 = CALENDAR_DATE ( 2020, 4, 11 ) ;
#90 = DIRECTION ( 'NONE',  ( 1.000000000000000000, 0.0000000000000000000, 0.0000000000000000000 ) ) ;
#91 = PLANE ( 'NONE',  #61 ) ;
#92 = FACE_OUTER_BOUND ( 'NONE', #29, .T. ) ;
#93 = PRODUCT_RELATED_PRODUCT_CATEGORY ( 'detail', '', ( #86 ) ) ;
#94 = DIRECTION ( 'NONE',  ( 1.000000000000000000, 0.0000000000000000000, 0.0000000000000000000 ) ) ;
#95 = CARTESIAN_POINT ( 'NONE',  ( 0.0000000000000000000, 0.0000000000000000000, 0.0000000000000000000 ) ) ;
#96 = EDGE_LOOP ( 'NONE', ( #110, #79, #168, #45 ) ) ;
#97 = DATE_TIME_ROLE ( 'classification_date' ) ;
#98 =( GEOMETRIC_REPRESENTATION_CONTEXT ( 3 ) GLOBAL_UNCERTAINTY_ASSIGNED_CONTEXT ( ( #129 ) ) GLOBAL_UNIT_ASSIGNED_CONTEXT ( ( #22, #49, #20 ) ) REPRESENTATION_CONTEXT ( 'NONE', 'WORKASPACE' ) );
#99 = CIRCLE ( 'NONE', #56, 6.249999999999998224 ) ;
#100 = CC_DESIGN_PERSON_AND_ORGANIZATION_ASSIGNMENT ( #160, #19, ( #114 ) ) ;
#101 = ADVANCED_BREP_SHAPE_REPRESENTATION ( 'Web Model 47193_13332', ( #106, #77 ), #98 ) ;
#102 = CC_DESIGN_APPROVAL ( #52, ( #80 ) ) ;
#103 = ORIENTED_EDGE ( 'NONE', *, *, #34, .T. ) ;
#104 = DIRECTION ( 'NONE',  ( 0.0000000000000000000, 0.0000000000000000000, 1.000000000000000000 ) ) ;
#105 = MECHANICAL_CONTEXT ( 'NONE', #163, 'mechanical' ) ;
#106 = MANIFOLD_SOLID_BREP ( 'Boss-Extrude1', #9 ) ;
#107 = ORIENTED_EDGE ( 'NONE', *, *, #170, .T. ) ;
#108 = DIRECTION ( 'NONE',  ( 1.000000000000000000, 0.0000000000000000000, -0.0000000000000000000 ) ) ;
#109 = DIRECTION ( 'NONE',  ( 0.0000000000000000000, 0.0000000000000000000, 1.000000000000000000 ) ) ;
#110 = ORIENTED_EDGE ( 'NONE', *, *, #23, .T. ) ;
#111 = LINE ( 'NONE', #59, #173 ) ;
#112 = VERTEX_POINT ( 'NONE', #32 ) ;
#113 = CARTESIAN_POINT ( 'NONE',  ( 0.0000000000000000000, 0.0000000000000000000, 0.0000000000000000000 ) ) ;
#114 = PRODUCT_DEFINITION_FORMATION_WITH_SPECIFIED_SOURCE ( 'ANY', '', #86, .NOT_KNOWN. ) ;
#115 = DIRECTION ( 'NONE',  ( 0.0000000000000000000, 0.0000000000000000000, 1.000000000000000000 ) ) ;
#116 = DIRECTION ( 'NONE',  ( 1.000000000000000000, 0.0000000000000000000, 0.0000000000000000000 ) ) ;
#117 = APPROVAL_STATUS ( 'not_yet_approved' ) ;
#118 = APPROVAL_DATE_TIME ( #153, #52 ) ;
#119 = PERSON_AND_ORGANIZATION_ROLE ( 'design_owner' ) ;
#120 = ORIENTED_EDGE ( 'NONE', *, *, #6, .T. ) ;
#121 = CC_DESIGN_DATE_AND_TIME_ASSIGNMENT ( #142, #97, ( #141 ) ) ;
#122 = PERSON_AND_ORGANIZATION ( #55, #83 ) ;
#123 = VERTEX_POINT ( 'NONE', #3 ) ;
#124 = VECTOR ( 'NONE', #75, 1000.000000000000000 ) ;
#125 = SHAPE_DEFINITION_REPRESENTATION ( #4, #101 ) ;
#126 = CC_DESIGN_PERSON_AND_ORGANIZATION_ASSIGNMENT ( #122, #50, ( #141 ) ) ;
#127 = DATE_AND_TIME ( #12, #167 ) ;
#128 = DIRECTION ( 'NONE',  ( 1.000000000000000000, 0.0000000000000000000, -0.0000000000000000000 ) ) ;
#129 = UNCERTAINTY_MEASURE_WITH_UNIT (LENGTH_MEASURE( 1.000000000000000082E-05 ), #22, 'distance_accuracy_value', 'NONE');
#130 = CARTESIAN_POINT ( 'NONE',  ( -6.249999999999998224, 7.654042494670955634E-16, -1.500000000000000000 ) ) ;
#131 = LOCAL_TIME ( 8, 56, 7.000000000000000000, #140 ) ;
#132 = DIRECTION ( 'NONE',  ( 1.000000000000000000, 0.0000000000000000000, 0.0000000000000000000 ) ) ;
#133 = SECURITY_CLASSIFICATION_LEVEL ( 'unclassified' ) ;
#134 = DIRECTION ( 'NONE',  ( 0.0000000000000000000, 0.0000000000000000000, 1.000000000000000000 ) ) ;
#135 = DATE_AND_TIME ( #38, #72 ) ;
#136 = DATE_TIME_ROLE ( 'creation_date' ) ;
#137 = ORIENTED_EDGE ( 'NONE', *, *, #139, .F. ) ;
#138 = PERSON_AND_ORGANIZATION ( #55, #83 ) ;
#139 = EDGE_CURVE ( 'NONE', #152, #123, #164, .T. ) ;
#140 = COORDINATED_UNIVERSAL_TIME_OFFSET ( 5, 0, .BEHIND. ) ;
#141 = SECURITY_CLASSIFICATION ( '', '', #133 ) ;
#142 = DATE_AND_TIME ( #58, #131 ) ;
#143 = EDGE_LOOP ( 'NONE', ( #137, #44, #120, #166 ) ) ;
#144 = CARTESIAN_POINT ( 'NONE',  ( 0.0000000000000000000, 0.0000000000000000000, -1.500000000000000000 ) ) ;
#145 = CARTESIAN_POINT ( 'NONE',  ( 0.0000000000000000000, 0.0000000000000000000, 0.0000000000000000000 ) ) ;
#146 = PLANE ( 'NONE',  #42 ) ;
#147 = APPROVAL_ROLE ( '' ) ;
#148 = APPROVAL_STATUS ( 'not_yet_approved' ) ;
#149 = APPROVAL_DATE_TIME ( #127, #151 ) ;
#150 = APPROVAL_ROLE ( '' ) ;
#151 = APPROVAL ( #148, 'UNSPECIFIED' ) ;
#152 = VERTEX_POINT ( 'NONE', #130 ) ;
#153 = DATE_AND_TIME ( #89, #161 ) ;
#154 = APPROVAL ( #40, 'UNSPECIFIED' ) ;
#155 = CC_DESIGN_SECURITY_CLASSIFICATION ( #141, ( #114 ) ) ;
#156 = DIRECTION ( 'NONE',  ( 0.0000000000000000000, 0.0000000000000000000, 1.000000000000000000 ) ) ;
#157 = CARTESIAN_POINT ( 'NONE',  ( 0.0000000000000000000, 0.0000000000000000000, -1.500000000000000000 ) ) ;
#158 = CC_DESIGN_PERSON_AND_ORGANIZATION_ASSIGNMENT ( #17, #51, ( #80 ) ) ;
#159 = DESIGN_CONTEXT ( 'detailed design', #174, 'design' ) ;
#160 = PERSON_AND_ORGANIZATION ( #55, #83 ) ;
#161 = LOCAL_TIME ( 8, 56, 7.000000000000000000, #13 ) ;
#162 = ADVANCED_FACE ( 'NONE', ( #57 ), #91, .F. ) ;
#163 = APPLICATION_CONTEXT ( 'configuration controlled 3d designs of mechanical parts and assemblies' ) ;
#164 = LINE ( 'NONE', #62, #124 ) ;
#165 = EDGE_CURVE ( 'NONE', #152, #112, #99, .T. ) ;
#166 = ORIENTED_EDGE ( 'NONE', *, *, #34, .F. ) ;
#167 = LOCAL_TIME ( 8, 56, 7.000000000000000000, #33 ) ;
#168 = ORIENTED_EDGE ( 'NONE', *, *, #170, .F. ) ;
#169 = CC_DESIGN_APPROVAL ( #154, ( #114 ) ) ;
#170 = EDGE_CURVE ( 'NONE', #85, #123, #60, .T. ) ;
#171 = DIRECTION ( 'NONE',  ( 0.0000000000000000000, 0.0000000000000000000, 1.000000000000000000 ) ) ;
#172 = CARTESIAN_POINT ( 'NONE',  ( 0.0000000000000000000, 0.0000000000000000000, -1.500000000000000000 ) ) ;
#173 = VECTOR ( 'NONE', #78, 1000.000000000000000 ) ;
#174 = APPLICATION_CONTEXT ( 'configuration controlled 3d designs of mechanical parts and assemblies' ) ;
#175 = PERSON_AND_ORGANIZATION ( #55, #83 ) ;
ENDSEC;
END-ISO-10303-21;
