ISO-10303-21;
HEADER;
FILE_DESCRIPTION (( 'STEP AP203' ),
    '1' );
FILE_NAME ('5mm BEAMSPLITTER CUBE TS_48871.step',
    '2021-09-20T13:25:23',
    ( '' ),
    ( '' ),
    'SwSTEP 2.0',
    'SolidWorks 2018',
    '' );
FILE_SCHEMA (( 'CONFIG_CONTROL_DESIGN' ));
ENDSEC;

DATA;
#1 = CARTESIAN_POINT ( 'NONE',  ( 3.535533905932756404, -4.329780281177489355E-16, -2.500000000000000000 ) ) ;
#2 = DIRECTION ( 'NONE',  ( -0.000000000000000000, -0.000000000000000000, -1.000000000000000000 ) ) ;
#3 = CC_DESIGN_PERSON_AND_ORGANIZATION_ASSIGNMENT ( #185, #233, ( #227 ) ) ;
#4 = CARTESIAN_POINT ( 'NONE',  ( 3.535533905932756404, -4.329780281177489355E-16, 2.500000000000000000 ) ) ;
#5 = PERSON_AND_ORGANIZATION ( #179, #231 ) ;
#6 = DATE_TIME_ROLE ( 'classification_date' ) ;
#7 = DATE_TIME_ROLE ( 'creation_date' ) ;
#8 = PERSON ( 'NAUO-PER2', 'UNSPECIFIED', 'UNSPECIFIED', ('UNSPECIFIED'), ('UNSPECIFIED'), ('UNSPECIFIED') ) ;
#9 = SECURITY_CLASSIFICATION_LEVEL ( 'unclassified' ) ;
#10 = CC_DESIGN_DATE_AND_TIME_ASSIGNMENT ( #322, #20, ( #335 ) ) ;
#11 = LOCAL_TIME ( 9, 25, 23.00000000000000000, #330 ) ;
#12 = FACE_OUTER_BOUND ( 'NONE', #317, .T. ) ;
#13 = ORIENTED_EDGE ( 'NONE', *, *, #298, .F. ) ;
#14 = APPLICATION_CONTEXT ( 'configuration controlled 3d designs of mechanical parts and assemblies' ) ;
#15 =( GEOMETRIC_REPRESENTATION_CONTEXT ( 3 ) GLOBAL_UNCERTAINTY_ASSIGNED_CONTEXT ( ( #137 ) ) GLOBAL_UNIT_ASSIGNED_CONTEXT ( ( #267, #342, #291 ) ) REPRESENTATION_CONTEXT ( 'NONE', 'WORKASPACE' ) );
#16 = PRODUCT_RELATED_PRODUCT_CATEGORY ( 'detail', '', ( #240 ) ) ;
#17 = PERSON_AND_ORGANIZATION ( #8, #222 ) ;
#18 = COORDINATED_UNIVERSAL_TIME_OFFSET ( 5, 0, .BEHIND. ) ;
#19 = SECURITY_CLASSIFICATION_LEVEL ( 'unclassified' ) ;
#20 = DATE_TIME_ROLE ( 'classification_date' ) ;
#21 = LOCAL_TIME ( 9, 25, 23.00000000000000000, #155 ) ;
#22 = LINE ( 'NONE', #193, #62 ) ;
#23 = APPROVAL_ROLE ( '' ) ;
#24 = CALENDAR_DATE ( 2021, 20, 9 ) ;
#25 = APPROVAL_DATE_TIME ( #92, #61 ) ;
#26 = CC_DESIGN_PERSON_AND_ORGANIZATION_ASSIGNMENT ( #280, #44, ( #230 ) ) ;
#27 = ORIENTED_EDGE ( 'NONE', *, *, #279, .T. ) ;
#28 = DIRECTION ( 'NONE',  ( -0.7071067811865512365, -0.7071067811865439090, 0.000000000000000000 ) ) ;
#29 = CARTESIAN_POINT ( 'NONE',  ( 3.535533905932756404, -4.329780281177489355E-16, 2.500000000000000000 ) ) ;
#30 = SECURITY_CLASSIFICATION ( '', '', #9 ) ;
#31 = DIRECTION ( 'NONE',  ( 0.7071067811865512365, 0.7071067811865439090, 0.000000000000000000 ) ) ;
#32 = LOCAL_TIME ( 9, 25, 23.00000000000000000, #175 ) ;
#33 = CC_DESIGN_APPROVAL ( #157, ( #335 ) ) ;
#34 = CARTESIAN_POINT ( 'NONE',  ( 2.167624834490815307E-16, 3.535533905932719101, -2.500000000000000000 ) ) ;
#35 = APPLICATION_PROTOCOL_DEFINITION ( 'international standard', 'config_control_design', 1994, #292 ) ;
#36 = APPROVAL ( #290, 'UNSPECIFIED' ) ;
#37 = PERSON_AND_ORGANIZATION_ROLE ( 'creator' ) ;
#38 = LOCAL_TIME ( 9, 25, 23.00000000000000000, #53 ) ;
#39 = EDGE_LOOP ( 'NONE', ( #162, #88, #208 ) ) ;
#40 = APPROVAL_STATUS ( 'not_yet_approved' ) ;
#41 = PRODUCT_DEFINITION_FORMATION_WITH_SPECIFIED_SOURCE ( 'ANY', '', #184, .NOT_KNOWN. ) ;
#42 = APPROVAL_ROLE ( '' ) ;
#43 = DIRECTION ( 'NONE',  ( 1.000000000000000000, 0.000000000000000000, 0.000000000000000000 ) ) ;
#44 = PERSON_AND_ORGANIZATION_ROLE ( 'classification_officer' ) ;
#45 = LOCAL_TIME ( 9, 25, 23.00000000000000000, #114 ) ;
#46 = CLOSED_SHELL ( 'NONE', ( #329, #108, #82, #278, #164 ) ) ;
#47 = PRODUCT_DEFINITION_SHAPE ( 'NONE', 'NONE',  #315 ) ;
#48 = DATE_AND_TIME ( #304, #45 ) ;
#49 = LINE ( 'NONE', #220, #136 ) ;
#50 = CC_DESIGN_DATE_AND_TIME_ASSIGNMENT ( #259, #7, ( #315 ) ) ;
#51 = SHAPE_REPRESENTATION ( '5mm BEAMSPLITTER CUBE TS_48871', ( #124, #105, #98 ), #171 ) ;
#52 = LOCAL_TIME ( 9, 25, 23.00000000000000000, #274 ) ;
#53 = COORDINATED_UNIVERSAL_TIME_OFFSET ( 5, 0, .BEHIND. ) ;
#54 = EDGE_LOOP ( 'NONE', ( #169, #138, #356, #347 ) ) ;
#55 = PRODUCT_RELATED_PRODUCT_CATEGORY ( 'detail', '', ( #184 ) ) ;
#56 = CC_DESIGN_PERSON_AND_ORGANIZATION_ASSIGNMENT ( #5, #37, ( #227 ) ) ;
#57 = CALENDAR_DATE ( 2021, 20, 9 ) ;
#58 = APPROVAL ( #262, 'UNSPECIFIED' ) ;
#59 = DIRECTION ( 'NONE',  ( -0.7071067811865512365, 0.7071067811865439090, 0.000000000000000000 ) ) ;
#60 = PLANE ( 'NONE',  #344 ) ;
#61 = APPROVAL ( #287, 'UNSPECIFIED' ) ;
#62 = VECTOR ( 'NONE', #2, 1000.000000000000000 ) ;
#63 = ORIENTED_EDGE ( 'NONE', *, *, #279, .F. ) ;
#64 = CARTESIAN_POINT ( 'NONE',  ( -3.535533905932756404, 0.000000000000000000, 2.500000000000000000 ) ) ;
#65 = PLANE ( 'NONE',  #115 ) ;
#66 = DIRECTION ( 'NONE',  ( 0.000000000000000000, 0.000000000000000000, 1.000000000000000000 ) ) ;
#67 = DIRECTION ( 'NONE',  ( 1.000000000000000000, 0.000000000000000000, 0.000000000000000000 ) ) ;
#68 = PERSON_AND_ORGANIZATION ( #179, #231 ) ;
#69 = FACE_OUTER_BOUND ( 'NONE', #190, .T. ) ;
#70 = SECURITY_CLASSIFICATION ( '', '', #288 ) ;
#71 = APPROVAL_ROLE ( '' ) ;
#72 = COORDINATED_UNIVERSAL_TIME_OFFSET ( 5, 0, .BEHIND. ) ;
#73 = CARTESIAN_POINT ( 'NONE',  ( 0.000000000000000000, 0.000000000000000000, 0.000000000000000000 ) ) ;
#74 = CC_DESIGN_PERSON_AND_ORGANIZATION_ASSIGNMENT ( #110, #205, ( #30 ) ) ;
#75 = EDGE_LOOP ( 'NONE', ( #63, #223, #299 ) ) ;
#76 = CC_DESIGN_DATE_AND_TIME_ASSIGNMENT ( #154, #153, ( #230 ) ) ;
#77 = CALENDAR_DATE ( 2021, 20, 9 ) ;
#78 = SHAPE_REPRESENTATION_RELATIONSHIP ( 'NONE' , 'NONE' ,  #200, #266 ) ;
#79 = CONTEXT_DEPENDENT_SHAPE_REPRESENTATION ( #126, #142 ) ;
#80 = VERTEX_POINT ( 'NONE', #29 ) ;
#81 = CC_DESIGN_APPROVAL ( #36, ( #227 ) ) ;
#82 = ADVANCED_FACE ( 'NONE', ( #69 ), #65, .F. ) ;
#83 = AXIS2_PLACEMENT_3D ( 'NONE', #4, #198, #173 ) ;
#84 = CALENDAR_DATE ( 2021, 20, 9 ) ;
#85 = PERSON_AND_ORGANIZATION ( #179, #231 ) ;
#86 = VECTOR ( 'NONE', #228, 1000.000000000000000 ) ;
#87 = LINE ( 'NONE', #141, #119 ) ;
#88 = ORIENTED_EDGE ( 'NONE', *, *, #90, .T. ) ;
#89 = DIRECTION ( 'NONE',  ( 1.000000000000000000, 0.000000000000000000, -0.000000000000000000 ) ) ;
#90 = EDGE_CURVE ( 'NONE', #216, #224, #49, .T. ) ;
#91 = LOCAL_TIME ( 9, 25, 23.00000000000000000, #243 ) ;
#92 = DATE_AND_TIME ( #202, #32 ) ;
#93 = LINE ( 'NONE', #337, #100 ) ;
#94 = DIRECTION ( 'NONE',  ( 1.000000000000000000, -6.123233995736766036E-17, 0.000000000000000000 ) ) ;
#95 = PERSON_AND_ORGANIZATION_ROLE ( 'creator' ) ;
#96 =( NAMED_UNIT ( * ) PLANE_ANGLE_UNIT ( ) SI_UNIT ( $, .RADIAN. ) );
#97 = APPLICATION_PROTOCOL_DEFINITION ( 'international standard', 'config_control_design', 1994, #237 ) ;
#98 = AXIS2_PLACEMENT_3D ( 'NONE', #239, #268, #314 ) ;
#99 = DATE_AND_TIME ( #24, #277 ) ;
#100 = VECTOR ( 'NONE', #226, 1000.000000000000000 ) ;
#101 = APPLICATION_PROTOCOL_DEFINITION ( 'international standard', 'config_control_design', 1994, #269 ) ;
#102 = PERSON_AND_ORGANIZATION_ROLE ( 'creator' ) ;
#103 = APPROVAL ( #212, 'UNSPECIFIED' ) ;
#104 = DATE_AND_TIME ( #273, #168 ) ;
#105 = AXIS2_PLACEMENT_3D ( 'NONE', #151, #117, #67 ) ;
#106 = ORIENTED_EDGE ( 'NONE', *, *, #210, .T. ) ;
#107 = APPROVAL_PERSON_ORGANIZATION ( #68, #217, #234 ) ;
#108 = ADVANCED_FACE ( 'NONE', ( #245 ), #261, .F. ) ;
#109 = PERSON_AND_ORGANIZATION ( #179, #231 ) ;
#110 = PERSON_AND_ORGANIZATION ( #179, #231 ) ;
#111 = DATE_AND_TIME ( #286, #359 ) ;
#112 = CARTESIAN_POINT ( 'NONE',  ( 2.167624834490815307E-16, 3.535533905932719101, 2.500000000000000000 ) ) ;
#113 = CARTESIAN_POINT ( 'NONE',  ( 2.167624834490815307E-16, 3.535533905932719101, 2.500000000000000000 ) ) ;
#114 = COORDINATED_UNIVERSAL_TIME_OFFSET ( 5, 0, .BEHIND. ) ;
#115 = AXIS2_PLACEMENT_3D ( 'NONE', #282, #167, #256 ) ;
#116 = CARTESIAN_POINT ( 'NONE',  ( -3.535533905932756404, 0.000000000000000000, -2.500000000000000000 ) ) ;
#117 = DIRECTION ( 'NONE',  ( 0.000000000000000000, 0.000000000000000000, 1.000000000000000000 ) ) ;
#118 = LOCAL_TIME ( 9, 25, 23.00000000000000000, #219 ) ;
#119 = VECTOR ( 'NONE', #312, 1000.000000000000000 ) ;
#120 = DATE_TIME_ROLE ( 'creation_date' ) ;
#121 = DATE_TIME_ROLE ( 'classification_date' ) ;
#122 = PERSON_AND_ORGANIZATION_ROLE ( 'design_supplier' ) ;
#123 = DIRECTION ( 'NONE',  ( 0.000000000000000000, 0.000000000000000000, 1.000000000000000000 ) ) ;
#124 = AXIS2_PLACEMENT_3D ( 'NONE', #73, #345, #43 ) ;
#125 = PERSON_AND_ORGANIZATION ( #179, #231 ) ;
#126 =( REPRESENTATION_RELATIONSHIP ('NONE','NONE', #51, #200 ) REPRESENTATION_RELATIONSHIP_WITH_TRANSFORMATION ( #343 )SHAPE_REPRESENTATION_RELATIONSHIP( ) );
#127 = LOCAL_TIME ( 9, 25, 23.00000000000000000, #301 ) ;
#128 = CC_DESIGN_PERSON_AND_ORGANIZATION_ASSIGNMENT ( #251, #102, ( #196 ) ) ;
#129 = COORDINATED_UNIVERSAL_TIME_OFFSET ( 5, 0, .BEHIND. ) ;
#130 = VERTEX_POINT ( 'NONE', #284 ) ;
#131 = CC_DESIGN_PERSON_AND_ORGANIZATION_ASSIGNMENT ( #163, #174, ( #70 ) ) ;
#132 = AXIS2_PLACEMENT_3D ( 'NONE', #113, #339, #31 ) ;
#133 = APPROVAL_DATE_TIME ( #145, #103 ) ;
#134 = LINE ( 'NONE', #143, #327 ) ;
#135 = APPROVAL_PERSON_ORGANIZATION ( #17, #157, #23 ) ;
#136 = VECTOR ( 'NONE', #28, 999.9999999999998863 ) ;
#137 = UNCERTAINTY_MEASURE_WITH_UNIT (LENGTH_MEASURE( 1.000000000000000082E-05 ), #267, 'distance_accuracy_value', 'NONE');
#138 = ORIENTED_EDGE ( 'NONE', *, *, #303, .F. ) ;
#139 = CARTESIAN_POINT ( 'NONE',  ( 3.535533905932756404, -4.329780281177489355E-16, -2.500000000000000000 ) ) ;
#140 = CC_DESIGN_PERSON_AND_ORGANIZATION_ASSIGNMENT ( #264, #319, ( #240 ) ) ;
#141 = CARTESIAN_POINT ( 'NONE',  ( 2.167624834490815307E-16, 3.535533905932719101, 2.500000000000000000 ) ) ;
#142 = PRODUCT_DEFINITION_SHAPE ( 'NONE', 'NONE',  #360 ) ;
#143 = CARTESIAN_POINT ( 'NONE',  ( 2.167624834490815307E-16, 3.535533905932719101, -2.500000000000000000 ) ) ;
#144 = PLANE ( 'NONE',  #83 ) ;
#145 = DATE_AND_TIME ( #57, #118 ) ;
#146 = LINE ( 'NONE', #310, #334 ) ;
#147 = PERSON_AND_ORGANIZATION_ROLE ( 'creator' ) ;
#148 = DIRECTION ( 'NONE',  ( 1.000000000000000000, 0.000000000000000000, 0.000000000000000000 ) ) ;
#149 = APPLICATION_PROTOCOL_DEFINITION ( 'international standard', 'config_control_design', 1994, #14 ) ;
#150 = EDGE_CURVE ( 'NONE', #80, #216, #146, .T. ) ;
#151 = CARTESIAN_POINT ( 'NONE',  ( 0.000000000000000000, 0.000000000000000000, 0.000000000000000000 ) ) ;
#152 = MECHANICAL_CONTEXT ( 'NONE', #14, 'mechanical' ) ;
#153 = DATE_TIME_ROLE ( 'classification_date' ) ;
#154 = DATE_AND_TIME ( #358, #11 ) ;
#155 = COORDINATED_UNIVERSAL_TIME_OFFSET ( 5, 0, .BEHIND. ) ;
#156 = DESIGN_CONTEXT ( 'detailed design', #269, 'design' ) ;
#157 = APPROVAL ( #325, 'UNKNOWN' ) ;
#158 = FACE_OUTER_BOUND ( 'NONE', #75, .T. ) ;
#159 = CC_DESIGN_DATE_AND_TIME_ASSIGNMENT ( #161, #6, ( #30 ) ) ;
#160 = LOCAL_TIME ( 9, 25, 23.00000000000000000, #72 ) ;
#161 = DATE_AND_TIME ( #244, #235 ) ;
#162 = ORIENTED_EDGE ( 'NONE', *, *, #150, .T. ) ;
#163 = PERSON_AND_ORGANIZATION ( #179, #231 ) ;
#164 = ADVANCED_FACE ( 'NONE', ( #158 ), #194, .F. ) ;
#165 = LINE ( 'NONE', #139, #86 ) ;
#166 = MANIFOLD_SOLID_BREP ( 'Boss-Extrude1', #46 ) ;
#167 = DIRECTION ( 'NONE',  ( 6.123233995736766036E-17, 1.000000000000000000, -0.000000000000000000 ) ) ;
#168 = LOCAL_TIME ( 9, 25, 23.00000000000000000, #182 ) ;
#169 = ORIENTED_EDGE ( 'NONE', *, *, #191, .T. ) ;
#170 = CARTESIAN_POINT ( 'NONE',  ( -3.535533905932756404, 0.000000000000000000, 2.500000000000000000 ) ) ;
#171 =( GEOMETRIC_REPRESENTATION_CONTEXT ( 3 ) GLOBAL_UNCERTAINTY_ASSIGNED_CONTEXT ( ( #352 ) ) GLOBAL_UNIT_ASSIGNED_CONTEXT ( ( #346, #96, #318 ) ) REPRESENTATION_CONTEXT ( 'NONE', 'WORKASPACE' ) );
#172 = CARTESIAN_POINT ( 'NONE',  ( 0.000000000000000000, 0.000000000000000000, 0.000000000000000000 ) ) ;
#173 = DIRECTION ( 'NONE',  ( 0.7071067811865512365, -0.7071067811865439090, 0.000000000000000000 ) ) ;
#174 = PERSON_AND_ORGANIZATION_ROLE ( 'classification_officer' ) ;
#175 = COORDINATED_UNIVERSAL_TIME_OFFSET ( 5, 0, .BEHIND. ) ;
#176 = APPROVAL_PERSON_ORGANIZATION ( #186, #271, #71 ) ;
#177 = PERSON_AND_ORGANIZATION_ROLE ( 'design_owner' ) ;
#178 = APPROVAL_STATUS ( 'not_yet_approved' ) ;
#179 = PERSON ( 'UNSPECIFIED', 'UNSPECIFIED', 'UNSPECIFIED', ('UNSPECIFIED'), ('UNSPECIFIED'), ('UNSPECIFIED') ) ;
#180 = APPROVAL_ROLE ( '' ) ;
#181 = ITEM_DEFINED_TRANSFORMATION ( 'NONE', 'NONE', #98,  #308 ) ;
#182 = COORDINATED_UNIVERSAL_TIME_OFFSET ( 5, 0, .BEHIND. ) ;
#183 = ORIENTED_EDGE ( 'NONE', *, *, #303, .T. ) ;
#184 = PRODUCT ( '5mm BEAMSPLITTER CUBE TS_48871', '5mm BEAMSPLITTER CUBE TS_48871', '', ( #152 ) ) ;
#185 = PERSON_AND_ORGANIZATION ( #179, #231 ) ;
#186 = PERSON_AND_ORGANIZATION ( #179, #231 ) ;
#187 = CC_DESIGN_APPROVAL ( #58, ( #41 ) ) ;
#188 = CC_DESIGN_PERSON_AND_ORGANIZATION_ASSIGNMENT ( #17, #218, ( #335 ) ) ;
#189 = PERSON_AND_ORGANIZATION ( #179, #231 ) ;
#190 = EDGE_LOOP ( 'NONE', ( #106, #306, #13, #183 ) ) ;
#191 = EDGE_CURVE ( 'NONE', #238, #130, #134, .T. ) ;
#192 = CALENDAR_DATE ( 2021, 20, 9 ) ;
#193 = CARTESIAN_POINT ( 'NONE',  ( 3.535533905932756404, -4.329780281177489355E-16, 2.500000000000000000 ) ) ;
#194 = PLANE ( 'NONE',  #289 ) ;
#195 = APPROVAL_PERSON_ORGANIZATION ( #125, #58, #42 ) ;
#196 = PRODUCT_DEFINITION ( 'UNKNOWN', '', #41, #156 ) ;
#197 = VERTEX_POINT ( 'NONE', #1 ) ;
#198 = DIRECTION ( 'NONE',  ( -0.7071067811865439090, -0.7071067811865512365, 0.000000000000000000 ) ) ;
#199 = DIRECTION ( 'NONE',  ( 1.000000000000000000, -6.123233995736766036E-17, 0.000000000000000000 ) ) ;
#200 = SHAPE_REPRESENTATION ( '5x5 Right Angle Prism Master', ( #308 ), #15 ) ;
#201 = CONTEXT_DEPENDENT_SHAPE_REPRESENTATION ( #293, #253 ) ;
#202 = CALENDAR_DATE ( 2021, 20, 9 ) ;
#203 = DESIGN_CONTEXT ( 'detailed design', #292, 'design' ) ;
#204 = APPROVAL_ROLE ( '' ) ;
#205 = PERSON_AND_ORGANIZATION_ROLE ( 'classification_officer' ) ;
#206 = MECHANICAL_CONTEXT ( 'NONE', #237, 'mechanical' ) ;
#207 = PERSON_AND_ORGANIZATION ( #179, #231 ) ;
#208 = ORIENTED_EDGE ( 'NONE', *, *, #298, .T. ) ;
#209 = CC_DESIGN_APPROVAL ( #61, ( #315 ) ) ;
#210 = EDGE_CURVE ( 'NONE', #130, #197, #248, .T. ) ;
#211 = PERSON_AND_ORGANIZATION ( #179, #231 ) ;
#212 = APPROVAL_STATUS ( 'not_yet_approved' ) ;
#213 = CC_DESIGN_DATE_AND_TIME_ASSIGNMENT ( #99, #121, ( #70 ) ) ;
#214 = ORGANIZATION ( 'NAUO-ORG1', 'UNSPECIFIED', 'UNSPECIFIED' ) ;
#215 = LINE ( 'NONE', #64, #351 ) ;
#216 = VERTEX_POINT ( 'NONE', #112 ) ;
#217 = APPROVAL ( #40, 'UNSPECIFIED' ) ;
#218 = PERSON_AND_ORGANIZATION_ROLE ( 'classification_officer' ) ;
#219 = COORDINATED_UNIVERSAL_TIME_OFFSET ( 5, 0, .BEHIND. ) ;
#220 = CARTESIAN_POINT ( 'NONE',  ( 2.167624834490815307E-16, 3.535533905932719101, 2.500000000000000000 ) ) ;
#221 = CC_DESIGN_PERSON_AND_ORGANIZATION_ASSIGNMENT ( #189, #95, ( #41 ) ) ;
#222 = ORGANIZATION ( 'NAUO-ORG2', 'UNSPECIFIED', 'UNSPECIFIED' ) ;
#223 = ORIENTED_EDGE ( 'NONE', *, *, #210, .F. ) ;
#224 = VERTEX_POINT ( 'NONE', #170 ) ;
#225 = DIRECTION ( 'NONE',  ( -0.7071067811865512365, -0.7071067811865439090, 0.000000000000000000 ) ) ;
#226 = DIRECTION ( 'NONE',  ( -0.000000000000000000, -0.000000000000000000, -1.000000000000000000 ) ) ;
#227 = PRODUCT_DEFINITION_FORMATION_WITH_SPECIFIED_SOURCE ( 'ANY', '', #240, .NOT_KNOWN. ) ;
#228 = DIRECTION ( 'NONE',  ( -0.7071067811865512365, 0.7071067811865439090, 0.000000000000000000 ) ) ;
#229 = DATE_AND_TIME ( #324, #21 ) ;
#230 = SECURITY_CLASSIFICATION ( '', '', #295 ) ;
#231 = ORGANIZATION ( 'UNSPECIFIED', 'UNSPECIFIED', '' ) ;
#232 = DIRECTION ( 'NONE',  ( 0.000000000000000000, 0.000000000000000000, 1.000000000000000000 ) ) ;
#233 = PERSON_AND_ORGANIZATION_ROLE ( 'design_supplier' ) ;
#234 = APPROVAL_ROLE ( '' ) ;
#235 = LOCAL_TIME ( 9, 25, 23.00000000000000000, #18 ) ;
#236 = SHAPE_DEFINITION_REPRESENTATION ( #300, #51 ) ;
#237 = APPLICATION_CONTEXT ( 'configuration controlled 3d designs of mechanical parts and assemblies' ) ;
#238 = VERTEX_POINT ( 'NONE', #34 ) ;
#239 = CARTESIAN_POINT ( 'NONE',  ( 0.000000000000000000, 0.000000000000000000, 0.000000000000000000 ) ) ;
#240 = PRODUCT ( '5x5 Right Angle Prism Master', '5x5 Right Angle Prism Master', '', ( #206 ) ) ;
#241 = APPROVAL_ROLE ( '' ) ;
#242 = CC_DESIGN_APPROVAL ( #217, ( #30 ) ) ;
#243 = COORDINATED_UNIVERSAL_TIME_OFFSET ( 5, 0, .BEHIND. ) ;
#244 = CALENDAR_DATE ( 2021, 20, 9 ) ;
#245 = FACE_OUTER_BOUND ( 'NONE', #54, .T. ) ;
#246 = APPROVAL_STATUS ( 'not_yet_approved' ) ;
#247 = APPROVAL_DATE_TIME ( #111, #271 ) ;
#248 = LINE ( 'NONE', #116, #355 ) ;
#249 = APPROVAL ( #246, 'UNKNOWN' ) ;
#250 = APPROVAL_DATE_TIME ( #258, #249 ) ;
#251 = PERSON_AND_ORGANIZATION ( #179, #231 ) ;
#252 = CC_DESIGN_PERSON_AND_ORGANIZATION_ASSIGNMENT ( #207, #177, ( #184 ) ) ;
#253 = PRODUCT_DEFINITION_SHAPE ( 'NONE', 'NONE',  #361 ) ;
#254 = COORDINATED_UNIVERSAL_TIME_OFFSET ( 5, 0, .BEHIND. ) ;
#255 = CARTESIAN_POINT ( 'NONE',  ( 0.000000000000000000, 0.000000000000000000, -2.500000000000000000 ) ) ;
#256 = DIRECTION ( 'NONE',  ( -1.000000000000000000, 6.123233995736766036E-17, 0.000000000000000000 ) ) ;
#257 = CC_DESIGN_SECURITY_CLASSIFICATION ( #30, ( #41 ) ) ;
#258 = DATE_AND_TIME ( #349, #52 ) ;
#259 = DATE_AND_TIME ( #77, #127 ) ;
#260 = ORIENTED_EDGE ( 'NONE', *, *, #150, .F. ) ;
#261 = PLANE ( 'NONE',  #132 ) ;
#262 = APPROVAL_STATUS ( 'not_yet_approved' ) ;
#263 = CARTESIAN_POINT ( 'NONE',  ( 0.000000000000000000, 0.000000000000000000, 0.000000000000000000 ) ) ;
#264 = PERSON_AND_ORGANIZATION ( #179, #231 ) ;
#265 = CC_DESIGN_SECURITY_CLASSIFICATION ( #335, ( #361 ) ) ;
#266 = ADVANCED_BREP_SHAPE_REPRESENTATION ( '', ( #166, #308 ), #15 ) ;
#267 =( LENGTH_UNIT ( ) NAMED_UNIT ( * ) SI_UNIT ( .MILLI., .METRE. ) );
#268 = DIRECTION ( 'NONE',  ( 5.551115123125782702E-17, -1.232595164407830946E-32, 1.000000000000000222 ) ) ;
#269 = APPLICATION_CONTEXT ( 'configuration controlled 3d designs of mechanical parts and assemblies' ) ;
#270 = PERSON_AND_ORGANIZATION ( #179, #231 ) ;
#271 = APPROVAL ( #178, 'UNSPECIFIED' ) ;
#272 = APPROVAL_DATE_TIME ( #276, #157 ) ;
#273 = CALENDAR_DATE ( 2021, 20, 9 ) ;
#274 = COORDINATED_UNIVERSAL_TIME_OFFSET ( 5, 0, .BEHIND. ) ;
#275 = EDGE_CURVE ( 'NONE', #80, #197, #22, .T. ) ;
#276 = DATE_AND_TIME ( #84, #91 ) ;
#277 = LOCAL_TIME ( 9, 25, 23.00000000000000000, #254 ) ;
#278 = ADVANCED_FACE ( 'NONE', ( #302 ), #60, .T. ) ;
#279 = EDGE_CURVE ( 'NONE', #197, #238, #165, .T. ) ;
#280 = PERSON_AND_ORGANIZATION ( #348, #214 ) ;
#281 = ORIENTED_EDGE ( 'NONE', *, *, #320, .F. ) ;
#282 = CARTESIAN_POINT ( 'NONE',  ( -3.535533905932756404, 0.000000000000000000, 2.500000000000000000 ) ) ;
#283 = CC_DESIGN_APPROVAL ( #249, ( #230 ) ) ;
#284 = CARTESIAN_POINT ( 'NONE',  ( -3.535533905932756404, 0.000000000000000000, -2.500000000000000000 ) ) ;
#285 = APPROVAL_PERSON_ORGANIZATION ( #85, #61, #313 ) ;
#286 = CALENDAR_DATE ( 2021, 20, 9 ) ;
#287 = APPROVAL_STATUS ( 'not_yet_approved' ) ;
#288 = SECURITY_CLASSIFICATION_LEVEL ( 'unclassified' ) ;
#289 = AXIS2_PLACEMENT_3D ( 'NONE', #255, #341, #89 ) ;
#290 = APPROVAL_STATUS ( 'not_yet_approved' ) ;
#291 =( NAMED_UNIT ( * ) SI_UNIT ( $, .STERADIAN. ) SOLID_ANGLE_UNIT ( ) );
#292 = APPLICATION_CONTEXT ( 'configuration controlled 3d designs of mechanical parts and assemblies' ) ;
#293 =( REPRESENTATION_RELATIONSHIP ('NONE','NONE', #51, #200 ) REPRESENTATION_RELATIONSHIP_WITH_TRANSFORMATION ( #181 )SHAPE_REPRESENTATION_RELATIONSHIP( ) );
#294 = PERSON_AND_ORGANIZATION ( #179, #231 ) ;
#295 = SECURITY_CLASSIFICATION_LEVEL ( 'unclassified' ) ;
#296 = ORIENTED_EDGE ( 'NONE', *, *, #275, .T. ) ;
#297 = CC_DESIGN_SECURITY_CLASSIFICATION ( #70, ( #227 ) ) ;
#298 = EDGE_CURVE ( 'NONE', #224, #80, #215, .T. ) ;
#299 = ORIENTED_EDGE ( 'NONE', *, *, #191, .F. ) ;
#300 = PRODUCT_DEFINITION_SHAPE ( 'NONE', 'NONE',  #196 ) ;
#301 = COORDINATED_UNIVERSAL_TIME_OFFSET ( 5, 0, .BEHIND. ) ;
#302 = FACE_OUTER_BOUND ( 'NONE', #39, .T. ) ;
#303 = EDGE_CURVE ( 'NONE', #224, #130, #93, .T. ) ;
#304 = CALENDAR_DATE ( 2021, 20, 9 ) ;
#305 = SHAPE_DEFINITION_REPRESENTATION ( #47, #200 ) ;
#306 = ORIENTED_EDGE ( 'NONE', *, *, #275, .F. ) ;
#307 = CARTESIAN_POINT ( 'NONE',  ( 0.000000000000000000, 0.000000000000000000, 2.500000000000000000 ) ) ;
#308 = AXIS2_PLACEMENT_3D ( 'NONE', #263, #232, #321 ) ;
#309 = CALENDAR_DATE ( 2021, 20, 9 ) ;
#310 = CARTESIAN_POINT ( 'NONE',  ( 3.535533905932756404, -4.329780281177489355E-16, 2.500000000000000000 ) ) ;
#311 = DATE_AND_TIME ( #192, #38 ) ;
#312 = DIRECTION ( 'NONE',  ( -0.000000000000000000, -0.000000000000000000, -1.000000000000000000 ) ) ;
#313 = APPROVAL_ROLE ( '' ) ;
#314 = DIRECTION ( 'NONE',  ( -1.000000000000000222, 0.000000000000000000, 5.551115123125782702E-17 ) ) ;
#315 = PRODUCT_DEFINITION ( 'UNKNOWN', '', #227, #203 ) ;
#316 = APPROVAL_PERSON_ORGANIZATION ( #109, #36, #204 ) ;
#317 = EDGE_LOOP ( 'NONE', ( #27, #281, #260, #296 ) ) ;
#318 =( NAMED_UNIT ( * ) SI_UNIT ( $, .STERADIAN. ) SOLID_ANGLE_UNIT ( ) );
#319 = PERSON_AND_ORGANIZATION_ROLE ( 'design_owner' ) ;
#320 = EDGE_CURVE ( 'NONE', #216, #238, #87, .T. ) ;
#321 = DIRECTION ( 'NONE',  ( 1.000000000000000000, 0.000000000000000000, 0.000000000000000000 ) ) ;
#322 = DATE_AND_TIME ( #309, #160 ) ;
#323 = CC_DESIGN_APPROVAL ( #103, ( #70 ) ) ;
#324 = CALENDAR_DATE ( 2021, 20, 9 ) ;
#325 = APPROVAL_STATUS ( 'not_yet_approved' ) ;
#326 = CC_DESIGN_DATE_AND_TIME_ASSIGNMENT ( #311, #120, ( #196 ) ) ;
#327 = VECTOR ( 'NONE', #225, 999.9999999999998863 ) ;
#328 = CC_DESIGN_SECURITY_CLASSIFICATION ( #230, ( #360 ) ) ;
#329 = ADVANCED_FACE ( 'NONE', ( #12 ), #144, .F. ) ;
#330 = COORDINATED_UNIVERSAL_TIME_OFFSET ( 5, 0, .BEHIND. ) ;
#331 = APPROVAL_DATE_TIME ( #48, #217 ) ;
#332 = AXIS2_PLACEMENT_3D ( 'NONE', #172, #123, #148 ) ;
#333 = APPROVAL_PERSON_ORGANIZATION ( #294, #103, #241 ) ;
#334 = VECTOR ( 'NONE', #59, 1000.000000000000000 ) ;
#335 = SECURITY_CLASSIFICATION ( '', '', #19 ) ;
#336 = CC_DESIGN_APPROVAL ( #271, ( #196 ) ) ;
#337 = CARTESIAN_POINT ( 'NONE',  ( -3.535533905932756404, 0.000000000000000000, 2.500000000000000000 ) ) ;
#338 = APPROVAL_DATE_TIME ( #229, #58 ) ;
#339 = DIRECTION ( 'NONE',  ( 0.7071067811865439090, -0.7071067811865512365, 0.000000000000000000 ) ) ;
#340 = DIRECTION ( 'NONE',  ( 1.000000000000000000, 0.000000000000000000, -0.000000000000000000 ) ) ;
#341 = DIRECTION ( 'NONE',  ( 0.000000000000000000, 0.000000000000000000, 1.000000000000000000 ) ) ;
#342 =( NAMED_UNIT ( * ) PLANE_ANGLE_UNIT ( ) SI_UNIT ( $, .RADIAN. ) );
#343 = ITEM_DEFINED_TRANSFORMATION ( 'NONE', 'NONE', #105,  #308 ) ;
#344 = AXIS2_PLACEMENT_3D ( 'NONE', #307, #66, #340 ) ;
#345 = DIRECTION ( 'NONE',  ( 0.000000000000000000, 0.000000000000000000, 1.000000000000000000 ) ) ;
#346 =( LENGTH_UNIT ( ) NAMED_UNIT ( * ) SI_UNIT ( .MILLI., .METRE. ) );
#347 = ORIENTED_EDGE ( 'NONE', *, *, #320, .T. ) ;
#348 = PERSON ( 'NAUO-PER1', 'UNSPECIFIED', 'UNSPECIFIED', ('UNSPECIFIED'), ('UNSPECIFIED'), ('UNSPECIFIED') ) ;
#349 = CALENDAR_DATE ( 2021, 20, 9 ) ;
#350 = APPROVAL_DATE_TIME ( #104, #36 ) ;
#351 = VECTOR ( 'NONE', #94, 1000.000000000000000 ) ;
#352 = UNCERTAINTY_MEASURE_WITH_UNIT (LENGTH_MEASURE( 1.000000000000000082E-05 ), #346, 'distance_accuracy_value', 'NONE');
#353 = CC_DESIGN_PERSON_AND_ORGANIZATION_ASSIGNMENT ( #270, #122, ( #41 ) ) ;
#354 = APPROVAL_PERSON_ORGANIZATION ( #280, #249, #180 ) ;
#355 = VECTOR ( 'NONE', #199, 1000.000000000000000 ) ;
#356 = ORIENTED_EDGE ( 'NONE', *, *, #90, .F. ) ;
#357 = CC_DESIGN_PERSON_AND_ORGANIZATION_ASSIGNMENT ( #211, #147, ( #315 ) ) ;
#358 = CALENDAR_DATE ( 2021, 20, 9 ) ;
#359 = LOCAL_TIME ( 9, 25, 23.00000000000000000, #129 ) ;
#360 = NEXT_ASSEMBLY_USAGE_OCCURRENCE ( 'NAUO1', ' ', ' ', #196, #315, $ ) ;
#361 = NEXT_ASSEMBLY_USAGE_OCCURRENCE ( 'NAUO2', ' ', ' ', #196, #315, $ ) ;
ENDSEC;
END-ISO-10303-21;
