ISO-10303-21;
HEADER;
FILE_DESCRIPTION (( 'STEP AP214' ),
    '1' );
FILE_NAME ('3263-E0W.STEP',
    '2009-12-21T16:56:13',
    ( ' ' ),
    ( ' ' ),
    'SwSTEP 2.0',
    'SolidWorks 2009',
    '' );
FILE_SCHEMA (( 'AUTOMOTIVE_DESIGN' ));
ENDSEC;

DATA;
#1 = AXIS2_PLACEMENT_3D ( 'NONE', #5, #3, #4 ) ;
#2 = CIRCLE ( 'NONE', #1, 15.00000000000000200 ) ;
#3 = DIRECTION ( 'NONE',  ( -0.0000000000000000000, -0.0000000000000000000, 1.000000000000000000 ) ) ;
#4 = DIRECTION ( 'NONE',  ( 1.000000000000000000, 0.0000000000000000000, 0.0000000000000000000 ) ) ;
#5 = CARTESIAN_POINT ( 'NONE',  ( 0.0000000000000000000, 0.0000000000000000000, -1.995509924221768000 ) ) ;
#6 = PRODUCT ( '3263-E0W', '3263-E0W', '', ( #7 ) ) ;
#7 = PRODUCT_CONTEXT ( 'NONE', #37, 'mechanical' ) ;
#8 = APPLICATION_PROTOCOL_DEFINITION ( 'draft international standard', 'automotive_design', 1998, #37 ) ;
#9 = AXIS2_PLACEMENT_3D ( 'NONE', #16, #60, #62 ) ;
#10 =( LENGTH_UNIT ( ) NAMED_UNIT ( * ) SI_UNIT ( .MILLI., .METRE. ) );
#11 = DIRECTION ( 'NONE',  ( 0.0000000000000000000, 1.000000000000000000, 0.0000000000000000000 ) ) ;
#12 = DIRECTION ( 'NONE',  ( -1.000000000000000000, 0.0000000000000000000, 0.0000000000000000000 ) ) ;
#13 = CARTESIAN_POINT ( 'NONE',  ( 0.0000000000000000000, 0.0000000000000000000, -16.11500000000000200 ) ) ;
#14 = AXIS2_PLACEMENT_3D ( 'NONE', #13, #12, #11 ) ;
#15 = SPHERICAL_SURFACE ( 'NONE', #14, 20.60000000000000100 ) ;
#16 = CARTESIAN_POINT ( 'NONE',  ( 0.0000000000000000000, 0.0000000000000000000, 0.0000000000000000000 ) ) ;
#17 =( LENGTH_UNIT ( ) NAMED_UNIT ( * ) SI_UNIT ( .MILLI., .METRE. ) );
#18 = COLOUR_RGB ( '',0.9568627450980391500, 0.9490196078431372100, 0.9607843137254902200 ) ;
#19 = UNCERTAINTY_MEASURE_WITH_UNIT (LENGTH_MEASURE( 1.000000000000000100E-005 ), #22, 'distance_accuracy_value', 'NONE');
#20 =( NAMED_UNIT ( * ) SI_UNIT ( $, .STERADIAN. ) SOLID_ANGLE_UNIT ( ) );
#21 =( NAMED_UNIT ( * ) PLANE_ANGLE_UNIT ( ) SI_UNIT ( $, .RADIAN. ) );
#22 =( LENGTH_UNIT ( ) NAMED_UNIT ( * ) SI_UNIT ( .MILLI., .METRE. ) );
#23 = MECHANICAL_DESIGN_GEOMETRIC_PRESENTATION_REPRESENTATION (  '', ( #25 ), #63 ) ;
#24 = PRESENTATION_LAYER_ASSIGNMENT (  '', '', ( #25 ) ) ;
#25 = STYLED_ITEM ( 'NONE', ( #26 ), #38 ) ;
#26 = PRESENTATION_STYLE_ASSIGNMENT (( #27 ) ) ;
#27 = SURFACE_STYLE_USAGE ( .BOTH. , #28 ) ;
#28 = SURFACE_SIDE_STYLE ('',( #33 ) ) ;
#29 = FILL_AREA_STYLE_COLOUR ( '', #18 ) ;
#30 = UNCERTAINTY_MEASURE_WITH_UNIT (LENGTH_MEASURE( 1.000000000000000100E-005 ), #10, 'distance_accuracy_value', 'NONE');
#31 =( NAMED_UNIT ( * ) SI_UNIT ( $, .STERADIAN. ) SOLID_ANGLE_UNIT ( ) );
#32 =( NAMED_UNIT ( * ) PLANE_ANGLE_UNIT ( ) SI_UNIT ( $, .RADIAN. ) );
#33 = SURFACE_STYLE_FILL_AREA ( #34 ) ;
#34 = FILL_AREA_STYLE ('',( #35 ) ) ;
#35 = FILL_AREA_STYLE_COLOUR ( '', #36 ) ;
#36 = COLOUR_RGB ( '',0.7960784313725489700, 0.8235294117647058400, 0.9372549019607843100 ) ;
#37 = APPLICATION_CONTEXT ( 'automotive_design' ) ;
#38 = ADVANCED_BREP_SHAPE_REPRESENTATION ( '3263-E0W', ( #83, #9 ), #39 ) ;
#39 =( GEOMETRIC_REPRESENTATION_CONTEXT ( 3 ) GLOBAL_UNCERTAINTY_ASSIGNED_CONTEXT ( ( #30 ) ) GLOBAL_UNIT_ASSIGNED_CONTEXT ( ( #10, #32, #31 ) ) REPRESENTATION_CONTEXT ( 'NONE', 'WORKASPACE' ) );
#40 = PRODUCT_DEFINITION_SHAPE ( 'NONE', 'NONE',  #43 ) ;
#41 = PRODUCT_RELATED_PRODUCT_CATEGORY ( 'part', '', ( #6 ) ) ;
#42 = PRODUCT_DEFINITION_FORMATION_WITH_SPECIFIED_SOURCE ( 'ANY', '', #6, .NOT_KNOWN. ) ;
#43 = PRODUCT_DEFINITION ( 'UNKNOWN', '', #42, #44 ) ;
#44 = PRODUCT_DEFINITION_CONTEXT ( 'detailed design', #46, 'design' ) ;
#45 = APPLICATION_PROTOCOL_DEFINITION ( 'draft international standard', 'automotive_design', 1998, #46 ) ;
#46 = APPLICATION_CONTEXT ( 'automotive_design' ) ;
#47 = PRESENTATION_STYLE_ASSIGNMENT (( #48 ) ) ;
#48 = SURFACE_STYLE_USAGE ( .BOTH. , #49 ) ;
#49 = SURFACE_SIDE_STYLE ('',( #50 ) ) ;
#50 = SURFACE_STYLE_FILL_AREA ( #51 ) ;
#51 = FILL_AREA_STYLE ('',( #29 ) ) ;
#52 =( NAMED_UNIT ( * ) SI_UNIT ( $, .STERADIAN. ) SOLID_ANGLE_UNIT ( ) );
#53 =( NAMED_UNIT ( * ) PLANE_ANGLE_UNIT ( ) SI_UNIT ( $, .RADIAN. ) );
#54 =( GEOMETRIC_REPRESENTATION_CONTEXT ( 3 ) GLOBAL_UNCERTAINTY_ASSIGNED_CONTEXT ( ( #55 ) ) GLOBAL_UNIT_ASSIGNED_CONTEXT ( ( #17, #53, #52 ) ) REPRESENTATION_CONTEXT ( 'NONE', 'WORKASPACE' ) );
#55 = UNCERTAINTY_MEASURE_WITH_UNIT (LENGTH_MEASURE( 1.000000000000000100E-005 ), #17, 'distance_accuracy_value', 'NONE');
#56 = FACE_OUTER_BOUND ( 'NONE', #115, .T. ) ;
#57 = MECHANICAL_DESIGN_GEOMETRIC_PRESENTATION_REPRESENTATION (  '', ( #59 ), #54 ) ;
#58 = PRESENTATION_LAYER_ASSIGNMENT (  '', '', ( #59 ) ) ;
#59 = STYLED_ITEM ( 'NONE', ( #47 ), #114 ) ;
#60 = DIRECTION ( 'NONE',  ( 0.0000000000000000000, 0.0000000000000000000, 1.000000000000000000 ) ) ;
#61 = SHAPE_DEFINITION_REPRESENTATION ( #40, #38 ) ;
#62 = DIRECTION ( 'NONE',  ( 1.000000000000000000, 0.0000000000000000000, 0.0000000000000000000 ) ) ;
#63 =( GEOMETRIC_REPRESENTATION_CONTEXT ( 3 ) GLOBAL_UNCERTAINTY_ASSIGNED_CONTEXT ( ( #19 ) ) GLOBAL_UNIT_ASSIGNED_CONTEXT ( ( #22, #21, #20 ) ) REPRESENTATION_CONTEXT ( 'NONE', 'WORKASPACE' ) );
#64 = ORIENTED_EDGE ( 'NONE', *, *, #94, .F. ) ;
#65 = EDGE_LOOP ( 'NONE', ( #64, #74, #68, #72, #69 ) ) ;
#66 = ORIENTED_EDGE ( 'NONE', *, *, #106, .T. ) ;
#67 = CLOSED_SHELL ( 'NONE', ( #82, #77, #114, #110, #71 ) ) ;
#68 = ORIENTED_EDGE ( 'NONE', *, *, #96, .T. ) ;
#69 = ORIENTED_EDGE ( 'NONE', *, *, #86, .F. ) ;
#70 = EDGE_CURVE ( 'NONE', #104, #78, #118, .T. ) ;
#71 = ADVANCED_FACE ( 'NONE', ( #133 ), #141, .F. ) ;
#72 = ORIENTED_EDGE ( 'NONE', *, *, #111, .F. ) ;
#73 = ORIENTED_EDGE ( 'NONE', *, *, #85, .F. ) ;
#74 = ORIENTED_EDGE ( 'NONE', *, *, #70, .T. ) ;
#75 = ORIENTED_EDGE ( 'NONE', *, *, #70, .F. ) ;
#76 = EDGE_LOOP ( 'NONE', ( #73, #75 ) ) ;
#77 = ADVANCED_FACE ( 'NONE', ( #178 ), #149, .T. ) ;
#78 = VERTEX_POINT ( 'NONE', #234 ) ;
#79 = ORIENTED_EDGE ( 'NONE', *, *, #96, .F. ) ;
#80 = ORIENTED_EDGE ( 'NONE', *, *, #106, .F. ) ;
#81 = EDGE_CURVE ( 'NONE', #92, #88, #229, .T. ) ;
#82 = ADVANCED_FACE ( 'NONE', ( #224 ), #209, .T. ) ;
#83 = MANIFOLD_SOLID_BREP ( 'NONE', #67 ) ;
#84 = VERTEX_POINT ( 'NONE', #189 ) ;
#85 = EDGE_CURVE ( 'NONE', #78, #104, #188, .T. ) ;
#86 = EDGE_CURVE ( 'NONE', #84, #92, #183, .T. ) ;
#87 = ORIENTED_EDGE ( 'NONE', *, *, #100, .F. ) ;
#88 = VERTEX_POINT ( 'NONE', #173 ) ;
#89 = VERTEX_POINT ( 'NONE', #172 ) ;
#90 = EDGE_CURVE ( 'NONE', #89, #102, #171, .T. ) ;
#91 =( GEOMETRIC_REPRESENTATION_CONTEXT ( 3 ) GLOBAL_UNCERTAINTY_ASSIGNED_CONTEXT ( ( #107 ) ) GLOBAL_UNIT_ASSIGNED_CONTEXT ( ( #125, #122, #105 ) ) REPRESENTATION_CONTEXT ( 'NONE', 'WORKASPACE' ) );
#92 = VERTEX_POINT ( 'NONE', #166 ) ;
#93 = EDGE_LOOP ( 'NONE', ( #98, #97, #108, #80 ) ) ;
#94 = EDGE_CURVE ( 'NONE', #104, #84, #165, .T. ) ;
#95 = EDGE_LOOP ( 'NONE', ( #99, #101, #87, #103, #79 ) ) ;
#96 = EDGE_CURVE ( 'NONE', #78, #89, #161, .T. ) ;
#97 = ORIENTED_EDGE ( 'NONE', *, *, #86, .T. ) ;
#98 = ORIENTED_EDGE ( 'NONE', *, *, #100, .T. ) ;
#99 = ORIENTED_EDGE ( 'NONE', *, *, #85, .T. ) ;
#100 = EDGE_CURVE ( 'NONE', #102, #84, #157, .T. ) ;
#101 = ORIENTED_EDGE ( 'NONE', *, *, #94, .T. ) ;
#102 = VERTEX_POINT ( 'NONE', #152 ) ;
#103 = ORIENTED_EDGE ( 'NONE', *, *, #90, .F. ) ;
#104 = VERTEX_POINT ( 'NONE', #261 ) ;
#105 =( NAMED_UNIT ( * ) SI_UNIT ( $, .STERADIAN. ) SOLID_ANGLE_UNIT ( ) );
#106 = EDGE_CURVE ( 'NONE', #102, #88, #259, .T. ) ;
#107 = UNCERTAINTY_MEASURE_WITH_UNIT (LENGTH_MEASURE( 1.000000000000000100E-005 ), #125, 'distance_accuracy_value', 'NONE');
#108 = ORIENTED_EDGE ( 'NONE', *, *, #81, .T. ) ;
#109 = ORIENTED_EDGE ( 'NONE', *, *, #111, .T. ) ;
#110 = ADVANCED_FACE ( 'NONE', ( #260 ), #239, .T. ) ;
#111 = EDGE_CURVE ( 'NONE', #92, #89, #2, .T. ) ;
#112 = ORIENTED_EDGE ( 'NONE', *, *, #90, .T. ) ;
#113 = ORIENTED_EDGE ( 'NONE', *, *, #81, .F. ) ;
#114 = ADVANCED_FACE ( 'NONE', ( #56 ), #15, .T. ) ;
#115 = EDGE_LOOP ( 'NONE', ( #113, #109, #112, #66 ) ) ;
#116 = AXIS2_PLACEMENT_3D ( 'NONE', #119, #120, #117 ) ;
#117 = DIRECTION ( 'NONE',  ( 1.000000000000000000, 0.0000000000000000000, 0.0000000000000000000 ) ) ;
#118 = CIRCLE ( 'NONE', #116, 15.00000000000000000 ) ;
#119 = CARTESIAN_POINT ( 'NONE',  ( 0.0000000000000000000, 0.0000000000000000000, -4.484999999999999400 ) ) ;
#120 = DIRECTION ( 'NONE',  ( -0.0000000000000000000, -0.0000000000000000000, 1.000000000000000000 ) ) ;
#121 = FILL_AREA_STYLE ('',( #126 ) ) ;
#122 =( NAMED_UNIT ( * ) PLANE_ANGLE_UNIT ( ) SI_UNIT ( $, .RADIAN. ) );
#123 = PRESENTATION_STYLE_ASSIGNMENT (( #124 ) ) ;
#124 = SURFACE_STYLE_USAGE ( .BOTH. , #132 ) ;
#125 =( LENGTH_UNIT ( ) NAMED_UNIT ( * ) SI_UNIT ( .MILLI., .METRE. ) );
#126 = FILL_AREA_STYLE_COLOUR ( '', #127 ) ;
#127 = COLOUR_RGB ( '',0.9568627450980391500, 0.9490196078431372100, 0.9607843137254902200 ) ;
#128 = SURFACE_STYLE_FILL_AREA ( #121 ) ;
#129 = MECHANICAL_DESIGN_GEOMETRIC_PRESENTATION_REPRESENTATION (  '', ( #131 ), #91 ) ;
#130 = PRESENTATION_LAYER_ASSIGNMENT (  '', '', ( #131 ) ) ;
#131 = STYLED_ITEM ( 'NONE', ( #123 ), #71 ) ;
#132 = SURFACE_SIDE_STYLE ('',( #128 ) ) ;
#133 = FACE_OUTER_BOUND ( 'NONE', #76, .T. ) ;
#134 = CARTESIAN_POINT ( 'NONE',  ( 0.0000000000000000000, 1.647762268252763800E-015, -4.485000000000000300 ) ) ;
#135 = PRESENTATION_LAYER_ASSIGNMENT (  '', '', ( #146 ) ) ;
#136 =( LENGTH_UNIT ( ) NAMED_UNIT ( * ) SI_UNIT ( .MILLI., .METRE. ) );
#137 = MECHANICAL_DESIGN_GEOMETRIC_PRESENTATION_REPRESENTATION (  '', ( #146 ), #150 ) ;
#138 = FILL_AREA_STYLE_COLOUR ( '', #140 ) ;
#139 = AXIS2_PLACEMENT_3D ( 'NONE', #134, #142, #147 ) ;
#140 = COLOUR_RGB ( '',0.9568627450980391500, 0.9490196078431372100, 0.9607843137254902200 ) ;
#141 = PLANE ( 'NONE',  #139 ) ;
#142 = DIRECTION ( 'NONE',  ( 0.0000000000000000000, -0.0000000000000000000, 1.000000000000000000 ) ) ;
#143 = SURFACE_SIDE_STYLE ('',( #144 ) ) ;
#144 = SURFACE_STYLE_FILL_AREA ( #145 ) ;
#145 = FILL_AREA_STYLE ('',( #138 ) ) ;
#146 = STYLED_ITEM ( 'NONE', ( #176 ), #77 ) ;
#147 = DIRECTION ( 'NONE',  ( 1.000000000000000000, 0.0000000000000000000, 0.0000000000000000000 ) ) ;
#148 = CARTESIAN_POINT ( 'NONE',  ( 0.0000000000000000000, 0.0000000000000000000, -16.11500000000000200 ) ) ;
#149 = SPHERICAL_SURFACE ( 'NONE', #233, 20.60000000000000100 ) ;
#150 =( GEOMETRIC_REPRESENTATION_CONTEXT ( 3 ) GLOBAL_UNCERTAINTY_ASSIGNED_CONTEXT ( ( #179 ) ) GLOBAL_UNIT_ASSIGNED_CONTEXT ( ( #136, #151, #180 ) ) REPRESENTATION_CONTEXT ( 'NONE', 'WORKASPACE' ) );
#151 =( NAMED_UNIT ( * ) PLANE_ANGLE_UNIT ( ) SI_UNIT ( $, .RADIAN. ) );
#152 = CARTESIAN_POINT ( 'NONE',  ( 0.0000000000000000000, 15.00000000000000200, -1.995509924221768000 ) ) ;
#153 = DIRECTION ( 'NONE',  ( 1.000000000000000000, 0.0000000000000000000, 0.0000000000000000000 ) ) ;
#154 = DIRECTION ( 'NONE',  ( -0.0000000000000000000, -0.0000000000000000000, 1.000000000000000000 ) ) ;
#155 = CARTESIAN_POINT ( 'NONE',  ( 0.0000000000000000000, 0.0000000000000000000, -1.995509924221768000 ) ) ;
#156 = AXIS2_PLACEMENT_3D ( 'NONE', #155, #154, #153 ) ;
#157 = CIRCLE ( 'NONE', #156, 15.00000000000000200 ) ;
#158 = DIRECTION ( 'NONE',  ( -0.0000000000000000000, -0.0000000000000000000, 1.000000000000000000 ) ) ;
#159 = VECTOR ( 'NONE', #158, 1000.000000000000000 ) ;
#160 = CARTESIAN_POINT ( 'NONE',  ( 15.00000000000000000, 0.0000000000000000000, 4.308132045400366600 ) ) ;
#161 = LINE ( 'NONE', #160, #159 ) ;
#162 = DIRECTION ( 'NONE',  ( -0.0000000000000000000, -0.0000000000000000000, 1.000000000000000000 ) ) ;
#163 = VECTOR ( 'NONE', #162, 1000.000000000000000 ) ;
#164 = CARTESIAN_POINT ( 'NONE',  ( -15.00000000000000000, 1.836909530733565900E-015, 4.308132045400366600 ) ) ;
#165 = LINE ( 'NONE', #164, #163 ) ;
#166 = CARTESIAN_POINT ( 'NONE',  ( -1.836909530733566300E-015, -15.00000000000000200, -1.995509924221768000 ) ) ;
#167 = DIRECTION ( 'NONE',  ( 1.000000000000000000, 0.0000000000000000000, 0.0000000000000000000 ) ) ;
#168 = DIRECTION ( 'NONE',  ( -0.0000000000000000000, -0.0000000000000000000, 1.000000000000000000 ) ) ;
#169 = CARTESIAN_POINT ( 'NONE',  ( 0.0000000000000000000, 0.0000000000000000000, -1.995509924221768000 ) ) ;
#170 = AXIS2_PLACEMENT_3D ( 'NONE', #169, #168, #167 ) ;
#171 = CIRCLE ( 'NONE', #170, 15.00000000000000200 ) ;
#172 = CARTESIAN_POINT ( 'NONE',  ( 15.00000000000000400, 0.0000000000000000000, -1.995509924221768000 ) ) ;
#173 = CARTESIAN_POINT ( 'NONE',  ( 0.0000000000000000000, 1.261344544437048600E-015, 4.484999999999999400 ) ) ;
#174 = DIRECTION ( 'NONE',  ( 1.000000000000000000, 0.0000000000000000000, 0.0000000000000000000 ) ) ;
#175 = DIRECTION ( 'NONE',  ( -0.0000000000000000000, -0.0000000000000000000, 1.000000000000000000 ) ) ;
#176 = PRESENTATION_STYLE_ASSIGNMENT (( #177 ) ) ;
#177 = SURFACE_STYLE_USAGE ( .BOTH. , #143 ) ;
#178 = FACE_OUTER_BOUND ( 'NONE', #93, .T. ) ;
#179 = UNCERTAINTY_MEASURE_WITH_UNIT (LENGTH_MEASURE( 1.000000000000000100E-005 ), #136, 'distance_accuracy_value', 'NONE');
#180 =( NAMED_UNIT ( * ) SI_UNIT ( $, .STERADIAN. ) SOLID_ANGLE_UNIT ( ) );
#181 = CARTESIAN_POINT ( 'NONE',  ( 0.0000000000000000000, 0.0000000000000000000, -1.995509924221768000 ) ) ;
#182 = AXIS2_PLACEMENT_3D ( 'NONE', #181, #175, #174 ) ;
#183 = CIRCLE ( 'NONE', #182, 15.00000000000000200 ) ;
#184 = DIRECTION ( 'NONE',  ( 1.000000000000000000, 0.0000000000000000000, 0.0000000000000000000 ) ) ;
#185 = DIRECTION ( 'NONE',  ( -0.0000000000000000000, -0.0000000000000000000, 1.000000000000000000 ) ) ;
#186 = CARTESIAN_POINT ( 'NONE',  ( 0.0000000000000000000, 0.0000000000000000000, -4.484999999999999400 ) ) ;
#187 = AXIS2_PLACEMENT_3D ( 'NONE', #186, #185, #184 ) ;
#188 = CIRCLE ( 'NONE', #187, 15.00000000000000000 ) ;
#189 = CARTESIAN_POINT ( 'NONE',  ( -15.00000000000000400, 1.836909530733566300E-015, -1.995509924221768000 ) ) ;
#190 =( GEOMETRIC_REPRESENTATION_CONTEXT ( 3 ) GLOBAL_UNCERTAINTY_ASSIGNED_CONTEXT ( ( #191 ) ) GLOBAL_UNIT_ASSIGNED_CONTEXT ( ( #194, #193, #192 ) ) REPRESENTATION_CONTEXT ( 'NONE', 'WORKASPACE' ) );
#191 = UNCERTAINTY_MEASURE_WITH_UNIT (LENGTH_MEASURE( 1.000000000000000100E-005 ), #194, 'distance_accuracy_value', 'NONE');
#192 =( NAMED_UNIT ( * ) SI_UNIT ( $, .STERADIAN. ) SOLID_ANGLE_UNIT ( ) );
#193 =( NAMED_UNIT ( * ) PLANE_ANGLE_UNIT ( ) SI_UNIT ( $, .RADIAN. ) );
#194 =( LENGTH_UNIT ( ) NAMED_UNIT ( * ) SI_UNIT ( .MILLI., .METRE. ) );
#195 = MECHANICAL_DESIGN_GEOMETRIC_PRESENTATION_REPRESENTATION (  '', ( #197 ), #190 ) ;
#196 = PRESENTATION_LAYER_ASSIGNMENT (  '', '', ( #197 ) ) ;
#197 = STYLED_ITEM ( 'NONE', ( #198 ), #83 ) ;
#198 = PRESENTATION_STYLE_ASSIGNMENT (( #199 ) ) ;
#199 = SURFACE_STYLE_USAGE ( .BOTH. , #200 ) ;
#200 = SURFACE_SIDE_STYLE ('',( #201 ) ) ;
#201 = SURFACE_STYLE_FILL_AREA ( #202 ) ;
#202 = FILL_AREA_STYLE ('',( #208 ) ) ;
#203 = DIRECTION ( 'NONE',  ( 1.000000000000000000, 0.0000000000000000000, 0.0000000000000000000 ) ) ;
#204 = DIRECTION ( 'NONE',  ( -0.0000000000000000000, -0.0000000000000000000, 1.000000000000000000 ) ) ;
#205 = CARTESIAN_POINT ( 'NONE',  ( 0.0000000000000000000, 0.0000000000000000000, 4.308132045400366600 ) ) ;
#206 = AXIS2_PLACEMENT_3D ( 'NONE', #205, #204, #203 ) ;
#207 = COLOUR_RGB ( '',0.7960784313725489700, 0.8235294117647058400, 0.9372549019607843100 ) ;
#208 = FILL_AREA_STYLE_COLOUR ( '', #207 ) ;
#209 = CYLINDRICAL_SURFACE ( 'NONE', #206, 15.00000000000000000 ) ;
#210 =( GEOMETRIC_REPRESENTATION_CONTEXT ( 3 ) GLOBAL_UNCERTAINTY_ASSIGNED_CONTEXT ( ( #211 ) ) GLOBAL_UNIT_ASSIGNED_CONTEXT ( ( #214, #213, #212 ) ) REPRESENTATION_CONTEXT ( 'NONE', 'WORKASPACE' ) );
#211 = UNCERTAINTY_MEASURE_WITH_UNIT (LENGTH_MEASURE( 1.000000000000000100E-005 ), #214, 'distance_accuracy_value', 'NONE');
#212 =( NAMED_UNIT ( * ) SI_UNIT ( $, .STERADIAN. ) SOLID_ANGLE_UNIT ( ) );
#213 =( NAMED_UNIT ( * ) PLANE_ANGLE_UNIT ( ) SI_UNIT ( $, .RADIAN. ) );
#214 =( LENGTH_UNIT ( ) NAMED_UNIT ( * ) SI_UNIT ( .MILLI., .METRE. ) );
#215 = MECHANICAL_DESIGN_GEOMETRIC_PRESENTATION_REPRESENTATION (  '', ( #217 ), #210 ) ;
#216 = PRESENTATION_LAYER_ASSIGNMENT (  '', '', ( #217 ) ) ;
#217 = STYLED_ITEM ( 'NONE', ( #218 ), #82 ) ;
#218 = PRESENTATION_STYLE_ASSIGNMENT (( #219 ) ) ;
#219 = SURFACE_STYLE_USAGE ( .BOTH. , #220 ) ;
#220 = SURFACE_SIDE_STYLE ('',( #221 ) ) ;
#221 = SURFACE_STYLE_FILL_AREA ( #222 ) ;
#222 = FILL_AREA_STYLE ('',( #230 ) ) ;
#223 = COLOUR_RGB ( '',0.9568627450980391500, 0.9490196078431372100, 0.9607843137254902200 ) ;
#224 = FACE_OUTER_BOUND ( 'NONE', #95, .T. ) ;
#225 = DIRECTION ( 'NONE',  ( -1.224606353822377300E-016, -1.000000000000000000, 0.0000000000000000000 ) ) ;
#226 = DIRECTION ( 'NONE',  ( -1.000000000000000000, 1.224606353822377300E-016, 0.0000000000000000000 ) ) ;
#227 = CARTESIAN_POINT ( 'NONE',  ( 0.0000000000000000000, 0.0000000000000000000, -16.11500000000000200 ) ) ;
#228 = AXIS2_PLACEMENT_3D ( 'NONE', #227, #226, #225 ) ;
#229 = CIRCLE ( 'NONE', #228, 20.60000000000000100 ) ;
#230 = FILL_AREA_STYLE_COLOUR ( '', #223 ) ;
#231 = DIRECTION ( 'NONE',  ( 0.0000000000000000000, 1.000000000000000000, 0.0000000000000000000 ) ) ;
#232 = DIRECTION ( 'NONE',  ( -1.000000000000000000, 0.0000000000000000000, 0.0000000000000000000 ) ) ;
#233 = AXIS2_PLACEMENT_3D ( 'NONE', #148, #232, #231 ) ;
#234 = CARTESIAN_POINT ( 'NONE',  ( 15.00000000000000000, 0.0000000000000000000, -4.484999999999999400 ) ) ;
#235 = DIRECTION ( 'NONE',  ( 1.000000000000000000, 0.0000000000000000000, 0.0000000000000000000 ) ) ;
#236 = DIRECTION ( 'NONE',  ( -0.0000000000000000000, -0.0000000000000000000, 1.000000000000000000 ) ) ;
#237 = CARTESIAN_POINT ( 'NONE',  ( 0.0000000000000000000, 0.0000000000000000000, 4.308132045400366600 ) ) ;
#238 = AXIS2_PLACEMENT_3D ( 'NONE', #237, #236, #235 ) ;
#239 = CYLINDRICAL_SURFACE ( 'NONE', #238, 15.00000000000000000 ) ;
#240 =( GEOMETRIC_REPRESENTATION_CONTEXT ( 3 ) GLOBAL_UNCERTAINTY_ASSIGNED_CONTEXT ( ( #241 ) ) GLOBAL_UNIT_ASSIGNED_CONTEXT ( ( #244, #243, #242 ) ) REPRESENTATION_CONTEXT ( 'NONE', 'WORKASPACE' ) );
#241 = UNCERTAINTY_MEASURE_WITH_UNIT (LENGTH_MEASURE( 1.000000000000000100E-005 ), #244, 'distance_accuracy_value', 'NONE');
#242 =( NAMED_UNIT ( * ) SI_UNIT ( $, .STERADIAN. ) SOLID_ANGLE_UNIT ( ) );
#243 =( NAMED_UNIT ( * ) PLANE_ANGLE_UNIT ( ) SI_UNIT ( $, .RADIAN. ) );
#244 =( LENGTH_UNIT ( ) NAMED_UNIT ( * ) SI_UNIT ( .MILLI., .METRE. ) );
#245 = MECHANICAL_DESIGN_GEOMETRIC_PRESENTATION_REPRESENTATION (  '', ( #247 ), #240 ) ;
#246 = PRESENTATION_LAYER_ASSIGNMENT (  '', '', ( #247 ) ) ;
#247 = STYLED_ITEM ( 'NONE', ( #248 ), #110 ) ;
#248 = PRESENTATION_STYLE_ASSIGNMENT (( #249 ) ) ;
#249 = SURFACE_STYLE_USAGE ( .BOTH. , #250 ) ;
#250 = SURFACE_SIDE_STYLE ('',( #251 ) ) ;
#251 = SURFACE_STYLE_FILL_AREA ( #252 ) ;
#252 = FILL_AREA_STYLE ('',( #253 ) ) ;
#253 = FILL_AREA_STYLE_COLOUR ( '', #254 ) ;
#254 = COLOUR_RGB ( '',0.9568627450980391500, 0.9490196078431372100, 0.9607843137254902200 ) ;
#255 = DIRECTION ( 'NONE',  ( 0.0000000000000000000, 0.0000000000000000000, -1.000000000000000000 ) ) ;
#256 = DIRECTION ( 'NONE',  ( 1.000000000000000000, 0.0000000000000000000, 0.0000000000000000000 ) ) ;
#257 = CARTESIAN_POINT ( 'NONE',  ( 0.0000000000000000000, 0.0000000000000000000, -16.11500000000000200 ) ) ;
#258 = AXIS2_PLACEMENT_3D ( 'NONE', #257, #256, #255 ) ;
#259 = CIRCLE ( 'NONE', #258, 20.59999999999999800 ) ;
#260 = FACE_OUTER_BOUND ( 'NONE', #65, .T. ) ;
#261 = CARTESIAN_POINT ( 'NONE',  ( -15.00000000000000000, 1.836909530733565900E-015, -4.484999999999999400 ) ) ;
ENDSEC;
END-ISO-10303-21;
