ISO-10303-21;
HEADER;
FILE_DESCRIPTION (( 'STEP AP203' ),
    '1' );
FILE_NAME ('Web Model 49629.STEP',
    '2017-01-31T15:23:15',
    ( '' ),
    ( '' ),
    'SwSTEP 2.0',
    'SolidWorks 2016',
    '' );
FILE_SCHEMA (( 'CONFIG_CONTROL_DESIGN' ));
ENDSEC;

DATA;
#1 = COORDINATED_UNIVERSAL_TIME_OFFSET ( 5, 0, .BEHIND. ) ;
#2 = APPROVAL_PERSON_ORGANIZATION ( #146, #102, #114 ) ;
#3 = APPLICATION_CONTEXT ( 'configuration controlled 3d designs of mechanical parts and assemblies' ) ;
#4 = ORIENTED_EDGE ( 'NONE', *, *, #166, .F. ) ;
#5 = ORIENTED_EDGE ( 'NONE', *, *, #82, .T. ) ;
#6 = APPROVAL_ROLE ( '' ) ;
#7 = PERSON_AND_ORGANIZATION ( #173, #57 ) ;
#8 = LINE ( 'NONE', #180, #225 ) ;
#9 = DATE_AND_TIME ( #193, #141 ) ;
#10 = VECTOR ( 'NONE', #127, 1000.000000000000000 ) ;
#11 = ORIENTED_EDGE ( 'NONE', *, *, #14, .F. ) ;
#12 =( GEOMETRIC_REPRESENTATION_CONTEXT ( 3 ) GLOBAL_UNCERTAINTY_ASSIGNED_CONTEXT ( ( #81 ) ) GLOBAL_UNIT_ASSIGNED_CONTEXT ( ( #86, #123, #15 ) ) REPRESENTATION_CONTEXT ( 'NONE', 'WORKASPACE' ) );
#13 = FACE_OUTER_BOUND ( 'NONE', #138, .T. ) ;
#14 = EDGE_CURVE ( 'NONE', #58, #42, #89, .T. ) ;
#15 =( NAMED_UNIT ( * ) SI_UNIT ( $, .STERADIAN. ) SOLID_ANGLE_UNIT ( ) );
#16 = CLOSED_SHELL ( 'NONE', ( #28, #140, #29, #122, #44, #66 ) ) ;
#17 = CARTESIAN_POINT ( 'NONE',  ( 12.50000000000000000, 12.50000000000000000, 0.0000000000000000000 ) ) ;
#18 = DIRECTION ( 'NONE',  ( -0.0000000000000000000, 0.0000000000000000000, -1.000000000000000000 ) ) ;
#19 = DIRECTION ( 'NONE',  ( 0.0000000000000000000, -0.0000000000000000000, -1.000000000000000000 ) ) ;
#20 = APPLICATION_CONTEXT ( 'configuration controlled 3d designs of mechanical parts and assemblies' ) ;
#21 = ORIENTED_EDGE ( 'NONE', *, *, #91, .F. ) ;
#22 = PERSON_AND_ORGANIZATION_ROLE ( 'creator' ) ;
#23 = CC_DESIGN_PERSON_AND_ORGANIZATION_ASSIGNMENT ( #149, #22, ( #222 ) ) ;
#24 = EDGE_LOOP ( 'NONE', ( #37, #188, #194, #218 ) ) ;
#25 = VERTEX_POINT ( 'NONE', #200 ) ;
#26 = CALENDAR_DATE ( 2017, 31, 1 ) ;
#27 = ORIENTED_EDGE ( 'NONE', *, *, #95, .F. ) ;
#28 = ADVANCED_FACE ( 'NONE', ( #184 ), #228, .F. ) ;
#29 = ADVANCED_FACE ( 'NONE', ( #13 ), #72, .F. ) ;
#30 = DIRECTION ( 'NONE',  ( -0.0000000000000000000, -0.0000000000000000000, -1.000000000000000000 ) ) ;
#31 = VERTEX_POINT ( 'NONE', #107 ) ;
#32 = CARTESIAN_POINT ( 'NONE',  ( -12.50000000000000000, -12.50000000000000000, 0.0000000000000000000 ) ) ;
#33 = DIRECTION ( 'NONE',  ( 1.000000000000000000, 0.0000000000000000000, 0.0000000000000000000 ) ) ;
#34 = CC_DESIGN_DATE_AND_TIME_ASSIGNMENT ( #204, #167, ( #222 ) ) ;
#35 = DIRECTION ( 'NONE',  ( 0.0000000000000000000, -1.000000000000000000, 0.0000000000000000000 ) ) ;
#36 = PERSON_AND_ORGANIZATION ( #173, #57 ) ;
#37 = ORIENTED_EDGE ( 'NONE', *, *, #166, .T. ) ;
#38 = DATE_AND_TIME ( #45, #187 ) ;
#39 = LINE ( 'NONE', #197, #115 ) ;
#40 = DATE_AND_TIME ( #99, #144 ) ;
#41 = ORIENTED_EDGE ( 'NONE', *, *, #64, .T. ) ;
#42 = VERTEX_POINT ( 'NONE', #17 ) ;
#43 = PRODUCT_DEFINITION_FORMATION_WITH_SPECIFIED_SOURCE ( 'ANY', '', #206, .NOT_KNOWN. ) ;
#44 = ADVANCED_FACE ( 'NONE', ( #136 ), #47, .T. ) ;
#45 = CALENDAR_DATE ( 2017, 31, 1 ) ;
#46 = LINE ( 'NONE', #181, #157 ) ;
#47 = PLANE ( 'NONE',  #170 ) ;
#48 = DIRECTION ( 'NONE',  ( 1.000000000000000000, 0.0000000000000000000, -0.0000000000000000000 ) ) ;
#49 = APPROVAL_DATE_TIME ( #38, #102 ) ;
#50 = AXIS2_PLACEMENT_3D ( 'NONE', #151, #98, #100 ) ;
#51 = ORIENTED_EDGE ( 'NONE', *, *, #70, .T. ) ;
#52 = EDGE_LOOP ( 'NONE', ( #226, #78, #63, #223 ) ) ;
#53 = EDGE_CURVE ( 'NONE', #190, #232, #221, .T. ) ;
#54 = CARTESIAN_POINT ( 'NONE',  ( -12.50000000000000000, -12.50000000000000000, 4.000000000000000000 ) ) ;
#55 = SECURITY_CLASSIFICATION_LEVEL ( 'unclassified' ) ;
#56 = PERSON_AND_ORGANIZATION ( #173, #57 ) ;
#57 = ORGANIZATION ( 'UNSPECIFIED', 'UNSPECIFIED', '' ) ;
#58 = VERTEX_POINT ( 'NONE', #108 ) ;
#59 = CC_DESIGN_APPROVAL ( #104, ( #43 ) ) ;
#60 = AXIS2_PLACEMENT_3D ( 'NONE', #147, #48, #18 ) ;
#61 = EDGE_CURVE ( 'NONE', #58, #190, #69, .T. ) ;
#62 = VECTOR ( 'NONE', #67, 1000.000000000000000 ) ;
#63 = ORIENTED_EDGE ( 'NONE', *, *, #61, .F. ) ;
#64 = EDGE_CURVE ( 'NONE', #31, #25, #39, .T. ) ;
#65 = CC_DESIGN_PERSON_AND_ORGANIZATION_ASSIGNMENT ( #154, #203, ( #43 ) ) ;
#66 = ADVANCED_FACE ( 'NONE', ( #129 ), #143, .F. ) ;
#67 = DIRECTION ( 'NONE',  ( -0.0000000000000000000, 1.000000000000000000, -0.0000000000000000000 ) ) ;
#68 = DIRECTION ( 'NONE',  ( -1.000000000000000000, 0.0000000000000000000, 0.0000000000000000000 ) ) ;
#69 = LINE ( 'NONE', #110, #84 ) ;
#70 = EDGE_CURVE ( 'NONE', #25, #42, #236, .T. ) ;
#71 = ORIENTED_EDGE ( 'NONE', *, *, #135, .F. ) ;
#72 = PLANE ( 'NONE',  #119 ) ;
#73 = AXIS2_PLACEMENT_3D ( 'NONE', #54, #113, #235 ) ;
#74 = DIRECTION ( 'NONE',  ( 1.000000000000000000, 0.0000000000000000000, 0.0000000000000000000 ) ) ;
#75 = PERSON_AND_ORGANIZATION_ROLE ( 'design_owner' ) ;
#76 = DATE_AND_TIME ( #227, #191 ) ;
#77 = FACE_OUTER_BOUND ( 'NONE', #52, .T. ) ;
#78 = ORIENTED_EDGE ( 'NONE', *, *, #53, .F. ) ;
#79 = CC_DESIGN_DATE_AND_TIME_ASSIGNMENT ( #9, #117, ( #111 ) ) ;
#80 = APPROVAL_PERSON_ORGANIZATION ( #36, #233, #220 ) ;
#81 = UNCERTAINTY_MEASURE_WITH_UNIT (LENGTH_MEASURE( 1.000000000000000100E-005 ), #86, 'distance_accuracy_value', 'NONE');
#82 = EDGE_CURVE ( 'NONE', #209, #25, #202, .T. ) ;
#83 = FACE_OUTER_BOUND ( 'NONE', #164, .T. ) ;
#84 = VECTOR ( 'NONE', #88, 1000.000000000000000 ) ;
#85 = CC_DESIGN_PERSON_AND_ORGANIZATION_ASSIGNMENT ( #7, #183, ( #111 ) ) ;
#86 =( LENGTH_UNIT ( ) NAMED_UNIT ( * ) SI_UNIT ( .MILLI., .METRE. ) );
#87 = SHAPE_DEFINITION_REPRESENTATION ( #112, #118 ) ;
#88 = DIRECTION ( 'NONE',  ( -1.000000000000000000, -0.0000000000000000000, -0.0000000000000000000 ) ) ;
#89 = LINE ( 'NONE', #174, #106 ) ;
#90 = CARTESIAN_POINT ( 'NONE',  ( 12.50000000000000000, -12.50000000000000000, 4.000000000000000000 ) ) ;
#91 = EDGE_CURVE ( 'NONE', #232, #31, #46, .T. ) ;
#92 = CC_DESIGN_APPROVAL ( #233, ( #222 ) ) ;
#93 = DIRECTION ( 'NONE',  ( -0.0000000000000000000, 0.0000000000000000000, 1.000000000000000000 ) ) ;
#94 = DIRECTION ( 'NONE',  ( -0.0000000000000000000, 1.000000000000000000, -0.0000000000000000000 ) ) ;
#95 = EDGE_CURVE ( 'NONE', #176, #209, #175, .T. ) ;
#96 = APPROVAL_PERSON_ORGANIZATION ( #134, #104, #6 ) ;
#97 = APPLICATION_PROTOCOL_DEFINITION ( 'international standard', 'config_control_design', 1994, #20 ) ;
#98 = DIRECTION ( 'NONE',  ( 0.0000000000000000000, 0.0000000000000000000, 1.000000000000000000 ) ) ;
#99 = CALENDAR_DATE ( 2017, 31, 1 ) ;
#100 = DIRECTION ( 'NONE',  ( 1.000000000000000000, 0.0000000000000000000, 0.0000000000000000000 ) ) ;
#101 = ORIENTED_EDGE ( 'NONE', *, *, #64, .F. ) ;
#102 = APPROVAL ( #130, 'UNSPECIFIED' ) ;
#103 = VECTOR ( 'NONE', #195, 1000.000000000000000 ) ;
#104 = APPROVAL ( #185, 'UNSPECIFIED' ) ;
#105 = COORDINATED_UNIVERSAL_TIME_OFFSET ( 5, 0, .BEHIND. ) ;
#106 = VECTOR ( 'NONE', #30, 1000.000000000000000 ) ;
#107 = CARTESIAN_POINT ( 'NONE',  ( -12.50000000000000000, -12.50000000000000000, 0.0000000000000000000 ) ) ;
#108 = CARTESIAN_POINT ( 'NONE',  ( 12.50000000000000000, 12.50000000000000000, 4.000000000000000000 ) ) ;
#109 = LINE ( 'NONE', #160, #10 ) ;
#110 = CARTESIAN_POINT ( 'NONE',  ( -12.50000000000000000, 12.50000000000000000, 4.000000000000000000 ) ) ;
#111 = SECURITY_CLASSIFICATION ( '', '', #55 ) ;
#112 = PRODUCT_DEFINITION_SHAPE ( 'NONE', 'NONE',  #222 ) ;
#113 = DIRECTION ( 'NONE',  ( 0.0000000000000000000, 1.000000000000000000, 0.0000000000000000000 ) ) ;
#114 = APPROVAL_ROLE ( '' ) ;
#115 = VECTOR ( 'NONE', #213, 1000.000000000000000 ) ;
#116 = ORIENTED_EDGE ( 'NONE', *, *, #70, .F. ) ;
#117 = DATE_TIME_ROLE ( 'classification_date' ) ;
#118 = ADVANCED_BREP_SHAPE_REPRESENTATION ( 'Web Model 49629', ( #214, #50 ), #12 ) ;
#119 = AXIS2_PLACEMENT_3D ( 'NONE', #216, #68, #215 ) ;
#120 = EDGE_LOOP ( 'NONE', ( #21, #131, #116, #101 ) ) ;
#121 = CC_DESIGN_APPROVAL ( #102, ( #111 ) ) ;
#122 = ADVANCED_FACE ( 'NONE', ( #77 ), #201, .F. ) ;
#123 =( NAMED_UNIT ( * ) PLANE_ANGLE_UNIT ( ) SI_UNIT ( $, .RADIAN. ) );
#124 = VECTOR ( 'NONE', #94, 1000.000000000000000 ) ;
#125 = CC_DESIGN_PERSON_AND_ORGANIZATION_ASSIGNMENT ( #56, #152, ( #43 ) ) ;
#126 = CARTESIAN_POINT ( 'NONE',  ( -12.50000000000000000, 12.50000000000000000, 4.000000000000000000 ) ) ;
#127 = DIRECTION ( 'NONE',  ( 0.0000000000000000000, -1.000000000000000000, 0.0000000000000000000 ) ) ;
#128 = COORDINATED_UNIVERSAL_TIME_OFFSET ( 5, 0, .BEHIND. ) ;
#129 = FACE_OUTER_BOUND ( 'NONE', #120, .T. ) ;
#130 = APPROVAL_STATUS ( 'not_yet_approved' ) ;
#131 = ORIENTED_EDGE ( 'NONE', *, *, #169, .F. ) ;
#132 = ORIENTED_EDGE ( 'NONE', *, *, #82, .F. ) ;
#133 = CC_DESIGN_SECURITY_CLASSIFICATION ( #111, ( #43 ) ) ;
#134 = PERSON_AND_ORGANIZATION ( #173, #57 ) ;
#135 = EDGE_CURVE ( 'NONE', #176, #31, #8, .T. ) ;
#136 = FACE_OUTER_BOUND ( 'NONE', #24, .T. ) ;
#137 = ORIENTED_EDGE ( 'NONE', *, *, #142, .F. ) ;
#138 = EDGE_LOOP ( 'NONE', ( #51, #11, #137, #5 ) ) ;
#139 = CARTESIAN_POINT ( 'NONE',  ( -12.50000000000000000, -12.50000000000000000, 4.000000000000000000 ) ) ;
#140 = ADVANCED_FACE ( 'NONE', ( #83 ), #182, .F. ) ;
#141 = LOCAL_TIME ( 10, 23, 15.00000000000000000, #224 ) ;
#142 = EDGE_CURVE ( 'NONE', #209, #58, #208, .T. ) ;
#143 = PLANE ( 'NONE',  #199 ) ;
#144 = LOCAL_TIME ( 10, 23, 15.00000000000000000, #1 ) ;
#145 = CARTESIAN_POINT ( 'NONE',  ( 12.50000000000000000, 12.50000000000000000, 0.0000000000000000000 ) ) ;
#146 = PERSON_AND_ORGANIZATION ( #173, #57 ) ;
#147 = CARTESIAN_POINT ( 'NONE',  ( -12.50000000000000000, 12.50000000000000000, 4.000000000000000000 ) ) ;
#148 = CARTESIAN_POINT ( 'NONE',  ( 12.50000000000000000, 12.50000000000000000, 4.000000000000000000 ) ) ;
#149 = PERSON_AND_ORGANIZATION ( #173, #57 ) ;
#150 = VECTOR ( 'NONE', #74, 1000.000000000000000 ) ;
#151 = CARTESIAN_POINT ( 'NONE',  ( 0.0000000000000000000, 0.0000000000000000000, 0.0000000000000000000 ) ) ;
#152 = PERSON_AND_ORGANIZATION_ROLE ( 'design_supplier' ) ;
#153 = APPROVAL_STATUS ( 'not_yet_approved' ) ;
#154 = PERSON_AND_ORGANIZATION ( #173, #57 ) ;
#155 = VECTOR ( 'NONE', #231, 1000.000000000000000 ) ;
#156 = CARTESIAN_POINT ( 'NONE',  ( -12.50000000000000000, 12.50000000000000000, 0.0000000000000000000 ) ) ;
#157 = VECTOR ( 'NONE', #179, 1000.000000000000000 ) ;
#158 = DIRECTION ( 'NONE',  ( 1.000000000000000000, 0.0000000000000000000, 0.0000000000000000000 ) ) ;
#159 = EDGE_LOOP ( 'NONE', ( #168, #71, #4, #172 ) ) ;
#160 = CARTESIAN_POINT ( 'NONE',  ( -12.50000000000000000, 12.50000000000000000, 4.000000000000000000 ) ) ;
#161 = CARTESIAN_POINT ( 'NONE',  ( -12.50000000000000000, 12.50000000000000000, 0.0000000000000000000 ) ) ;
#162 = APPROVAL_DATE_TIME ( #76, #233 ) ;
#163 = MECHANICAL_CONTEXT ( 'NONE', #20, 'mechanical' ) ;
#164 = EDGE_LOOP ( 'NONE', ( #41, #132, #27, #205 ) ) ;
#165 = APPLICATION_PROTOCOL_DEFINITION ( 'international standard', 'config_control_design', 1994, #3 ) ;
#166 = EDGE_CURVE ( 'NONE', #190, #176, #109, .T. ) ;
#167 = DATE_TIME_ROLE ( 'creation_date' ) ;
#168 = ORIENTED_EDGE ( 'NONE', *, *, #91, .T. ) ;
#169 = EDGE_CURVE ( 'NONE', #42, #232, #198, .T. ) ;
#170 = AXIS2_PLACEMENT_3D ( 'NONE', #177, #93, #33 ) ;
#171 = PERSON_AND_ORGANIZATION ( #173, #57 ) ;
#172 = ORIENTED_EDGE ( 'NONE', *, *, #53, .T. ) ;
#173 = PERSON ( 'UNSPECIFIED', 'UNSPECIFIED', 'UNSPECIFIED', ('UNSPECIFIED'), ('UNSPECIFIED'), ('UNSPECIFIED') ) ;
#174 = CARTESIAN_POINT ( 'NONE',  ( 12.50000000000000000, 12.50000000000000000, 4.000000000000000000 ) ) ;
#175 = LINE ( 'NONE', #139, #150 ) ;
#176 = VERTEX_POINT ( 'NONE', #196 ) ;
#177 = CARTESIAN_POINT ( 'NONE',  ( -12.50000000000000000, -12.50000000000000000, 4.000000000000000000 ) ) ;
#178 = DIRECTION ( 'NONE',  ( -1.000000000000000000, -0.0000000000000000000, -0.0000000000000000000 ) ) ;
#179 = DIRECTION ( 'NONE',  ( 0.0000000000000000000, -1.000000000000000000, 0.0000000000000000000 ) ) ;
#180 = CARTESIAN_POINT ( 'NONE',  ( -12.50000000000000000, -12.50000000000000000, 4.000000000000000000 ) ) ;
#181 = CARTESIAN_POINT ( 'NONE',  ( -12.50000000000000000, 12.50000000000000000, 0.0000000000000000000 ) ) ;
#182 = PLANE ( 'NONE',  #73 ) ;
#183 = PERSON_AND_ORGANIZATION_ROLE ( 'classification_officer' ) ;
#184 = FACE_OUTER_BOUND ( 'NONE', #159, .T. ) ;
#185 = APPROVAL_STATUS ( 'not_yet_approved' ) ;
#186 = PRODUCT_RELATED_PRODUCT_CATEGORY ( 'detail', '', ( #206 ) ) ;
#187 = LOCAL_TIME ( 10, 23, 15.00000000000000000, #128 ) ;
#188 = ORIENTED_EDGE ( 'NONE', *, *, #95, .T. ) ;
#189 = AXIS2_PLACEMENT_3D ( 'NONE', #219, #35, #19 ) ;
#190 = VERTEX_POINT ( 'NONE', #212 ) ;
#191 = LOCAL_TIME ( 10, 23, 15.00000000000000000, #105 ) ;
#192 = DESIGN_CONTEXT ( 'detailed design', #3, 'design' ) ;
#193 = CALENDAR_DATE ( 2017, 31, 1 ) ;
#194 = ORIENTED_EDGE ( 'NONE', *, *, #142, .T. ) ;
#195 = DIRECTION ( 'NONE',  ( -0.0000000000000000000, -0.0000000000000000000, -1.000000000000000000 ) ) ;
#196 = CARTESIAN_POINT ( 'NONE',  ( -12.50000000000000000, -12.50000000000000000, 4.000000000000000000 ) ) ;
#197 = CARTESIAN_POINT ( 'NONE',  ( -12.50000000000000000, -12.50000000000000000, 0.0000000000000000000 ) ) ;
#198 = LINE ( 'NONE', #161, #217 ) ;
#199 = AXIS2_PLACEMENT_3D ( 'NONE', #32, #234, #158 ) ;
#200 = CARTESIAN_POINT ( 'NONE',  ( 12.50000000000000000, -12.50000000000000000, 0.0000000000000000000 ) ) ;
#201 = PLANE ( 'NONE',  #189 ) ;
#202 = LINE ( 'NONE', #229, #155 ) ;
#203 = PERSON_AND_ORGANIZATION_ROLE ( 'creator' ) ;
#204 = DATE_AND_TIME ( #26, #207 ) ;
#205 = ORIENTED_EDGE ( 'NONE', *, *, #135, .T. ) ;
#206 = PRODUCT ( 'Web Model 49629', 'Web Model 49629', '', ( #163 ) ) ;
#207 = LOCAL_TIME ( 10, 23, 15.00000000000000000, #211 ) ;
#208 = LINE ( 'NONE', #148, #62 ) ;
#209 = VERTEX_POINT ( 'NONE', #90 ) ;
#210 = CC_DESIGN_PERSON_AND_ORGANIZATION_ASSIGNMENT ( #171, #75, ( #206 ) ) ;
#211 = COORDINATED_UNIVERSAL_TIME_OFFSET ( 5, 0, .BEHIND. ) ;
#212 = CARTESIAN_POINT ( 'NONE',  ( -12.50000000000000000, 12.50000000000000000, 4.000000000000000000 ) ) ;
#213 = DIRECTION ( 'NONE',  ( 1.000000000000000000, 0.0000000000000000000, 0.0000000000000000000 ) ) ;
#214 = MANIFOLD_SOLID_BREP ( 'Extrude1', #16 ) ;
#215 = DIRECTION ( 'NONE',  ( 0.0000000000000000000, 0.0000000000000000000, 1.000000000000000000 ) ) ;
#216 = CARTESIAN_POINT ( 'NONE',  ( 12.50000000000000000, 12.50000000000000000, 4.000000000000000000 ) ) ;
#217 = VECTOR ( 'NONE', #178, 1000.000000000000000 ) ;
#218 = ORIENTED_EDGE ( 'NONE', *, *, #61, .T. ) ;
#219 = CARTESIAN_POINT ( 'NONE',  ( -12.50000000000000000, 12.50000000000000000, 4.000000000000000000 ) ) ;
#220 = APPROVAL_ROLE ( '' ) ;
#221 = LINE ( 'NONE', #126, #103 ) ;
#222 = PRODUCT_DEFINITION ( 'UNKNOWN', '', #43, #192 ) ;
#223 = ORIENTED_EDGE ( 'NONE', *, *, #14, .T. ) ;
#224 = COORDINATED_UNIVERSAL_TIME_OFFSET ( 5, 0, .BEHIND. ) ;
#225 = VECTOR ( 'NONE', #237, 1000.000000000000000 ) ;
#226 = ORIENTED_EDGE ( 'NONE', *, *, #169, .T. ) ;
#227 = CALENDAR_DATE ( 2017, 31, 1 ) ;
#228 = PLANE ( 'NONE',  #60 ) ;
#229 = CARTESIAN_POINT ( 'NONE',  ( 12.50000000000000000, -12.50000000000000000, 4.000000000000000000 ) ) ;
#230 = APPROVAL_DATE_TIME ( #40, #104 ) ;
#231 = DIRECTION ( 'NONE',  ( -0.0000000000000000000, -0.0000000000000000000, -1.000000000000000000 ) ) ;
#232 = VERTEX_POINT ( 'NONE', #156 ) ;
#233 = APPROVAL ( #153, 'UNSPECIFIED' ) ;
#234 = DIRECTION ( 'NONE',  ( -0.0000000000000000000, 0.0000000000000000000, 1.000000000000000000 ) ) ;
#235 = DIRECTION ( 'NONE',  ( 0.0000000000000000000, -0.0000000000000000000, 1.000000000000000000 ) ) ;
#236 = LINE ( 'NONE', #145, #124 ) ;
#237 = DIRECTION ( 'NONE',  ( -0.0000000000000000000, -0.0000000000000000000, -1.000000000000000000 ) ) ;
ENDSEC;
END-ISO-10303-21;
