ISO-10303-21;
HEADER;
FILE_DESCRIPTION (( 'STEP AP203' ),
    '1' );
FILE_NAME ('TTN162804-E0W.STEP',
    '2019-10-24T14:17:57',
    ( '' ),
    ( '' ),
    'SwSTEP 2.0',
    'SolidWorks 2018',
    '' );
FILE_SCHEMA (( 'CONFIG_CONTROL_DESIGN' ));
ENDSEC;

DATA;
#1 = PRODUCT_DEFINITION_SHAPE ( 'NONE', 'NONE',  #152 ) ;
#2 = ADVANCED_FACE ( 'NONE', ( #261 ), #254, .T. ) ;
#3 = CYLINDRICAL_SURFACE ( 'NONE', #96, 1.000000000000000000 ) ;
#4 = ADVANCED_FACE ( 'NONE', ( #52 ), #190, .T. ) ;
#5 = ORIENTED_EDGE ( 'NONE', *, *, #124, .T. ) ;
#6 = CARTESIAN_POINT ( 'NONE',  ( 0.5017199247357260194, 0.8143861833531226280, 2.150924676119031265 ) ) ;
#7 = DIRECTION ( 'NONE',  ( -0.7071067811865444641, 0.0000000000000000000, -0.7071067811865505703 ) ) ;
#8 = AXIS2_PLACEMENT_3D ( 'NONE', #6, #182, #157 ) ;
#9 = CARTESIAN_POINT ( 'NONE',  ( 1.501719924735726019, 0.8143861833531227390, 2.100924676119030998 ) ) ;
#10 = DIRECTION ( 'NONE',  ( 1.000000000000000000, 0.0000000000000000000, 0.0000000000000000000 ) ) ;
#11 = DIRECTION ( 'NONE',  ( -0.0000000000000000000, -0.0000000000000000000, 1.000000000000000000 ) ) ;
#12 = DIRECTION ( 'NONE',  ( -1.182336065960201216E-16, -1.000000000000000000, 0.0000000000000000000 ) ) ;
#13 = PLANE ( 'NONE',  #81 ) ;
#14 = ADVANCED_BREP_SHAPE_REPRESENTATION ( 'TTN162804-E0W', ( #88, #202 ), #295 ) ;
#15 = CARTESIAN_POINT ( 'NONE',  ( 0.5017199247357260194, 0.8143861833531226280, 2.150924676119031265 ) ) ;
#16 = AXIS2_PLACEMENT_3D ( 'NONE', #166, #97, #310 ) ;
#17 = PERSON_AND_ORGANIZATION_ROLE ( 'classification_officer' ) ;
#18 = ORIENTED_EDGE ( 'NONE', *, *, #306, .F. ) ;
#19 = APPROVAL_ROLE ( '' ) ;
#20 = EDGE_CURVE ( 'NONE', #260, #311, #298, .T. ) ;
#21 = LINE ( 'NONE', #162, #130 ) ;
#22 = EDGE_LOOP ( 'NONE', ( #107, #29, #82, #121 ) ) ;
#23 = LOCAL_TIME ( 10, 17, 57.00000000000000000, #129 ) ;
#24 = AXIS2_PLACEMENT_3D ( 'NONE', #92, #118, #10 ) ;
#25 = UNCERTAINTY_MEASURE_WITH_UNIT (LENGTH_MEASURE( 1.000000000000000082E-05 ), #168, 'distance_accuracy_value', 'NONE');
#26 = ADVANCED_FACE ( 'NONE', ( #274 ), #165, .T. ) ;
#27 = ORIENTED_EDGE ( 'NONE', *, *, #216, .F. ) ;
#28 = CIRCLE ( 'NONE', #16, 0.9500000000000002887 ) ;
#29 = ORIENTED_EDGE ( 'NONE', *, *, #275, .F. ) ;
#30 = ORIENTED_EDGE ( 'NONE', *, *, #102, .T. ) ;
#31 = DIRECTION ( 'NONE',  ( 0.0000000000000000000, 0.0000000000000000000, -1.000000000000000000 ) ) ;
#32 = DIRECTION ( 'NONE',  ( -0.0000000000000000000, -0.0000000000000000000, 1.000000000000000000 ) ) ;
#33 = AXIS2_PLACEMENT_3D ( 'NONE', #136, #258, #108 ) ;
#34 = DIRECTION ( 'NONE',  ( 0.0000000000000000000, 0.0000000000000000000, -1.000000000000000000 ) ) ;
#35 = DIRECTION ( 'NONE',  ( 1.000000000000000000, 0.0000000000000000000, 0.0000000000000000000 ) ) ;
#36 = ORIENTED_EDGE ( 'NONE', *, *, #65, .T. ) ;
#37 = ORIENTED_EDGE ( 'NONE', *, *, #20, .F. ) ;
#38 = APPLICATION_PROTOCOL_DEFINITION ( 'international standard', 'config_control_design', 1994, #127 ) ;
#39 = COORDINATED_UNIVERSAL_TIME_OFFSET ( 5, 0, .BEHIND. ) ;
#40 = DIRECTION ( 'NONE',  ( -0.0000000000000000000, -0.0000000000000000000, 1.000000000000000000 ) ) ;
#41 = EDGE_CURVE ( 'NONE', #143, #308, #230, .T. ) ;
#42 = APPROVAL_STATUS ( 'not_yet_approved' ) ;
#43 = DATE_TIME_ROLE ( 'classification_date' ) ;
#44 = ORIENTED_EDGE ( 'NONE', *, *, #75, .F. ) ;
#45 = PERSON ( 'UNSPECIFIED', 'UNSPECIFIED', 'UNSPECIFIED', ('UNSPECIFIED'), ('UNSPECIFIED'), ('UNSPECIFIED') ) ;
#46 = ORIENTED_EDGE ( 'NONE', *, *, #232, .T. ) ;
#47 = ORIENTED_EDGE ( 'NONE', *, *, #306, .T. ) ;
#48 = VECTOR ( 'NONE', #243, 1000.000000000000000 ) ;
#49 = ORIENTED_EDGE ( 'NONE', *, *, #281, .T. ) ;
#50 = APPROVAL_DATE_TIME ( #180, #229 ) ;
#51 = VECTOR ( 'NONE', #60, 1000.000000000000000 ) ;
#52 = FACE_OUTER_BOUND ( 'NONE', #83, .T. ) ;
#53 = CARTESIAN_POINT ( 'NONE',  ( 0.5017199247357260194, 0.8143861833531226280, 2.100924676119030998 ) ) ;
#54 = EDGE_LOOP ( 'NONE', ( #27, #150, #173, #214 ) ) ;
#55 = APPROVAL_DATE_TIME ( #257, #56 ) ;
#56 = APPROVAL ( #122, 'UNSPECIFIED' ) ;
#57 = DIRECTION ( 'NONE',  ( -1.000000000000000000, 0.0000000000000000000, 0.0000000000000000000 ) ) ;
#58 = VECTOR ( 'NONE', #11, 1000.000000000000000 ) ;
#59 = EDGE_CURVE ( 'NONE', #264, #143, #215, .T. ) ;
#60 = DIRECTION ( 'NONE',  ( -0.0000000000000000000, -0.0000000000000000000, 1.000000000000000000 ) ) ;
#61 = DIRECTION ( 'NONE',  ( 0.7071067811865444641, 0.0000000000000000000, 0.7071067811865505703 ) ) ;
#62 = CIRCLE ( 'NONE', #133, 1.000000000000000000 ) ;
#63 = LINE ( 'NONE', #141, #247 ) ;
#64 = CARTESIAN_POINT ( 'NONE',  ( 0.5017199247357260194, 0.8143861833531226280, 2.320161518894883645 ) ) ;
#65 = EDGE_CURVE ( 'NONE', #156, #248, #178, .T. ) ;
#66 = CARTESIAN_POINT ( 'NONE',  ( 1.501719924735726019, 0.8143861833531226280, 2.320161518894883645 ) ) ;
#67 = CALENDAR_DATE ( 2019, 24, 10 ) ;
#68 = EDGE_LOOP ( 'NONE', ( #114, #314, #256, #223, #18 ) ) ;
#69 = COORDINATED_UNIVERSAL_TIME_OFFSET ( 5, 0, .BEHIND. ) ;
#70 = CARTESIAN_POINT ( 'NONE',  ( 0.5017199247357260194, 0.8143861833531226280, 1.320161518894883423 ) ) ;
#71 = DIRECTION ( 'NONE',  ( 0.0000000000000000000, 0.0000000000000000000, 1.000000000000000000 ) ) ;
#72 = DIRECTION ( 'NONE',  ( 0.0000000000000000000, -0.0000000000000000000, 1.000000000000000000 ) ) ;
#73 = CARTESIAN_POINT ( 'NONE',  ( 0.5017199247357260194, 0.8143861833531226280, 1.370161518894883690 ) ) ;
#74 = DIRECTION ( 'NONE',  ( 0.0000000000000000000, 1.000000000000000000, 0.0000000000000000000 ) ) ;
#75 = EDGE_CURVE ( 'NONE', #283, #260, #63, .T. ) ;
#76 = CONICAL_SURFACE ( 'NONE', #79, 1.000000000000000000, 0.7853981633974439491 ) ;
#77 = SPHERICAL_SURFACE ( 'NONE', #249, 2.750999999999999890 ) ;
#78 = CC_DESIGN_APPROVAL ( #229, ( #152 ) ) ;
#79 = AXIS2_PLACEMENT_3D ( 'NONE', #231, #32, #280 ) ;
#80 = CIRCLE ( 'NONE', #199, 2.750999999999999890 ) ;
#81 = AXIS2_PLACEMENT_3D ( 'NONE', #70, #72, #170 ) ;
#82 = ORIENTED_EDGE ( 'NONE', *, *, #75, .T. ) ;
#83 = EDGE_LOOP ( 'NONE', ( #181, #103, #303, #239, #297 ) ) ;
#84 = EDGE_CURVE ( 'NONE', #156, #208, #227, .T. ) ;
#85 = PERSON_AND_ORGANIZATION ( #45, #148 ) ;
#86 = CARTESIAN_POINT ( 'NONE',  ( 0.5017199247357260194, 0.8143861833531226280, 1.370161518894883690 ) ) ;
#87 = CONICAL_SURFACE ( 'NONE', #210, 1.000000000000000000, 0.7853981633974439491 ) ;
#88 = MANIFOLD_SOLID_BREP ( 'TTN162773-1-solid1', #250 ) ;
#89 = DIRECTION ( 'NONE',  ( 1.000000000000000000, 0.0000000000000000000, 0.0000000000000000000 ) ) ;
#90 = CIRCLE ( 'NONE', #98, 1.000000000000000000 ) ;
#91 = DIRECTION ( 'NONE',  ( -0.0000000000000000000, -0.0000000000000000000, 1.000000000000000000 ) ) ;
#92 = CARTESIAN_POINT ( 'NONE',  ( 0.5017199247357260194, 0.8143861833531226280, 2.150924676119031265 ) ) ;
#93 = CARTESIAN_POINT ( 'NONE',  ( -0.4482800752642745468, 0.8143861833531226280, 2.150924676119031265 ) ) ;
#94 = ORIENTED_EDGE ( 'NONE', *, *, #216, .T. ) ;
#95 = CARTESIAN_POINT ( 'NONE',  ( 0.0000000000000000000, 0.0000000000000000000, 0.0000000000000000000 ) ) ;
#96 = AXIS2_PLACEMENT_3D ( 'NONE', #64, #164, #35 ) ;
#97 = DIRECTION ( 'NONE',  ( 0.0000000000000000000, 0.0000000000000000000, -1.000000000000000000 ) ) ;
#98 = AXIS2_PLACEMENT_3D ( 'NONE', #309, #184, #89 ) ;
#99 = APPLICATION_PROTOCOL_DEFINITION ( 'international standard', 'config_control_design', 1994, #266 ) ;
#100 = FACE_OUTER_BOUND ( 'NONE', #179, .T. ) ;
#101 = DATE_AND_TIME ( #140, #172 ) ;
#102 = EDGE_CURVE ( 'NONE', #260, #171, #319, .T. ) ;
#103 = ORIENTED_EDGE ( 'NONE', *, *, #177, .F. ) ;
#104 = FACE_OUTER_BOUND ( 'NONE', #111, .T. ) ;
#105 = ADVANCED_FACE ( 'NONE', ( #219 ), #76, .T. ) ;
#106 = AXIS2_PLACEMENT_3D ( 'NONE', #86, #299, #233 ) ;
#107 = ORIENTED_EDGE ( 'NONE', *, *, #128, .F. ) ;
#108 = DIRECTION ( 'NONE',  ( 0.0000000000000000000, 1.000000000000000000, 0.0000000000000000000 ) ) ;
#109 = CARTESIAN_POINT ( 'NONE',  ( -0.4982800752642740361, 0.8143861833531226280, 2.100924676119030998 ) ) ;
#110 = CIRCLE ( 'NONE', #225, 1.000000000000000000 ) ;
#111 = EDGE_LOOP ( 'NONE', ( #194, #5 ) ) ;
#112 = APPROVAL_PERSON_ORGANIZATION ( #203, #56, #19 ) ;
#113 = CARTESIAN_POINT ( 'NONE',  ( 0.5017199247357260194, 0.8143861833531226280, -0.4308384811051164665 ) ) ;
#114 = ORIENTED_EDGE ( 'NONE', *, *, #59, .F. ) ;
#115 = AXIS2_PLACEMENT_3D ( 'NONE', #235, #262, #145 ) ;
#116 = CARTESIAN_POINT ( 'NONE',  ( 0.5017199247357260194, 0.8143861833531226280, -0.4308384811051164665 ) ) ;
#117 = LINE ( 'NONE', #160, #51 ) ;
#118 = DIRECTION ( 'NONE',  ( -0.0000000000000000000, -0.0000000000000000000, 1.000000000000000000 ) ) ;
#119 = CARTESIAN_POINT ( 'NONE',  ( 1.501719924735726019, 0.8143861833531226280, 2.100924676119030998 ) ) ;
#120 = EDGE_CURVE ( 'NONE', #171, #208, #90, .T. ) ;
#121 = ORIENTED_EDGE ( 'NONE', *, *, #281, .F. ) ;
#122 = APPROVAL_STATUS ( 'not_yet_approved' ) ;
#123 = PERSON_AND_ORGANIZATION ( #45, #148 ) ;
#124 = EDGE_CURVE ( 'NONE', #192, #283, #289, .T. ) ;
#125 = DIRECTION ( 'NONE',  ( -0.0000000000000000000, -0.0000000000000000000, 1.000000000000000000 ) ) ;
#126 = CALENDAR_DATE ( 2019, 24, 10 ) ;
#127 = APPLICATION_CONTEXT ( 'configuration controlled 3d designs of mechanical parts and assemblies' ) ;
#128 = EDGE_CURVE ( 'NONE', #192, #311, #21, .T. ) ;
#129 = COORDINATED_UNIVERSAL_TIME_OFFSET ( 5, 0, .BEHIND. ) ;
#130 = VECTOR ( 'NONE', #188, 1000.000000000000000 ) ;
#131 = CALENDAR_DATE ( 2019, 24, 10 ) ;
#132 = ADVANCED_FACE ( 'NONE', ( #222 ), #234, .T. ) ;
#133 = AXIS2_PLACEMENT_3D ( 'NONE', #263, #278, #209 ) ;
#134 = EDGE_LOOP ( 'NONE', ( #174, #46, #201, #137 ) ) ;
#135 = CC_DESIGN_PERSON_AND_ORGANIZATION_ASSIGNMENT ( #251, #17, ( #259 ) ) ;
#136 = CARTESIAN_POINT ( 'NONE',  ( 0.5017199247357260194, 0.8143861833531226280, -0.4308384811051164665 ) ) ;
#137 = ORIENTED_EDGE ( 'NONE', *, *, #102, .F. ) ;
#138 = EDGE_CURVE ( 'NONE', #208, #171, #62, .T. ) ;
#139 = PERSON_AND_ORGANIZATION ( #45, #148 ) ;
#140 = CALENDAR_DATE ( 2019, 24, 10 ) ;
#141 = CARTESIAN_POINT ( 'NONE',  ( 1.501719924735726019, 0.8143861833531226280, 1.370161518894883690 ) ) ;
#142 = APPROVAL ( #217, 'UNSPECIFIED' ) ;
#143 = VERTEX_POINT ( 'NONE', #186 ) ;
#144 = DIRECTION ( 'NONE',  ( 1.000000000000000000, 0.0000000000000000000, 0.0000000000000000000 ) ) ;
#145 = DIRECTION ( 'NONE',  ( 1.000000000000000000, 0.0000000000000000000, 0.0000000000000000000 ) ) ;
#146 = CARTESIAN_POINT ( 'NONE',  ( 0.5017199247357259084, -0.1356138166468776052, 2.150924676119031265 ) ) ;
#147 = PERSON_AND_ORGANIZATION_ROLE ( 'creator' ) ;
#148 = ORGANIZATION ( 'UNSPECIFIED', 'UNSPECIFIED', '' ) ;
#149 = CARTESIAN_POINT ( 'NONE',  ( 1.501719924735726019, 0.8143861833531226280, 1.370161518894883690 ) ) ;
#150 = ORIENTED_EDGE ( 'NONE', *, *, #177, .T. ) ;
#151 = AXIS2_PLACEMENT_3D ( 'NONE', #276, #304, #307 ) ;
#152 = PRODUCT_DEFINITION ( 'UNKNOWN', '', #318, #237 ) ;
#153 = FACE_OUTER_BOUND ( 'NONE', #68, .T. ) ;
#154 = CC_DESIGN_PERSON_AND_ORGANIZATION_ASSIGNMENT ( #123, #200, ( #318 ) ) ;
#155 = AXIS2_PLACEMENT_3D ( 'NONE', #183, #255, #296 ) ;
#156 = VERTEX_POINT ( 'NONE', #93 ) ;
#157 = DIRECTION ( 'NONE',  ( 1.000000000000000000, 0.0000000000000000000, 0.0000000000000000000 ) ) ;
#158 = DIRECTION ( 'NONE',  ( -1.000000000000000000, 0.0000000000000000000, 0.0000000000000000000 ) ) ;
#159 = AXIS2_PLACEMENT_3D ( 'NONE', #211, #91, #144 ) ;
#160 = CARTESIAN_POINT ( 'NONE',  ( -0.4982800752642740361, 0.8143861833531227390, 2.320161518894883645 ) ) ;
#161 = DIRECTION ( 'NONE',  ( -1.000000000000000000, 1.224646799147353207E-16, 0.0000000000000000000 ) ) ;
#162 = CARTESIAN_POINT ( 'NONE',  ( -0.4982800752642740361, 0.8143861833531227390, 1.370161518894883690 ) ) ;
#163 = CALENDAR_DATE ( 2019, 24, 10 ) ;
#164 = DIRECTION ( 'NONE',  ( -0.0000000000000000000, -0.0000000000000000000, 1.000000000000000000 ) ) ;
#165 = CONICAL_SURFACE ( 'NONE', #155, 1.000000000000000000, 0.7853981633974439491 ) ;
#166 = CARTESIAN_POINT ( 'NONE',  ( 0.5017199247357260194, 0.8143861833531226280, 1.320161518894883423 ) ) ;
#167 =( NAMED_UNIT ( * ) SI_UNIT ( $, .STERADIAN. ) SOLID_ANGLE_UNIT ( ) );
#168 =( LENGTH_UNIT ( ) NAMED_UNIT ( * ) SI_UNIT ( .MILLI., .METRE. ) );
#169 = CC_DESIGN_APPROVAL ( #142, ( #259 ) ) ;
#170 = DIRECTION ( 'NONE',  ( 1.000000000000000000, 0.0000000000000000000, 0.0000000000000000000 ) ) ;
#171 = VERTEX_POINT ( 'NONE', #119 ) ;
#172 = LOCAL_TIME ( 10, 17, 57.00000000000000000, #39 ) ;
#173 = ORIENTED_EDGE ( 'NONE', *, *, #59, .T. ) ;
#174 = ORIENTED_EDGE ( 'NONE', *, *, #20, .T. ) ;
#175 = COORDINATED_UNIVERSAL_TIME_OFFSET ( 5, 0, .BEHIND. ) ;
#176 = CC_DESIGN_PERSON_AND_ORGANIZATION_ASSIGNMENT ( #313, #288, ( #318 ) ) ;
#177 = EDGE_CURVE ( 'NONE', #248, #264, #205, .T. ) ;
#178 = CIRCLE ( 'NONE', #24, 0.9500000000000005107 ) ;
#179 = EDGE_LOOP ( 'NONE', ( #300, #49, #30, #238 ) ) ;
#180 = DATE_AND_TIME ( #126, #23 ) ;
#181 = ORIENTED_EDGE ( 'NONE', *, *, #272, .F. ) ;
#182 = DIRECTION ( 'NONE',  ( -0.0000000000000000000, -0.0000000000000000000, 1.000000000000000000 ) ) ;
#183 = CARTESIAN_POINT ( 'NONE',  ( 0.5017199247357260194, 0.8143861833531226280, 1.370161518894883690 ) ) ;
#184 = DIRECTION ( 'NONE',  ( -0.0000000000000000000, -0.0000000000000000000, 1.000000000000000000 ) ) ;
#185 = DIRECTION ( 'NONE',  ( -1.000000000000000000, 0.0000000000000000000, 0.0000000000000000000 ) ) ;
#186 = CARTESIAN_POINT ( 'NONE',  ( 0.5017199247357260194, 1.764386183353122917, 2.150924676119031265 ) ) ;
#187 = AXIS2_PLACEMENT_3D ( 'NONE', #113, #206, #273 ) ;
#188 = DIRECTION ( 'NONE',  ( -0.7071067811865444641, 8.659560562354895880E-17, 0.7071067811865505703 ) ) ;
#189 = VECTOR ( 'NONE', #7, 1000.000000000000000 ) ;
#190 = CONICAL_SURFACE ( 'NONE', #291, 1.000000000000000000, 0.7853981633974439491 ) ;
#191 = CARTESIAN_POINT ( 'NONE',  ( -0.4982800752642740361, 0.8143861833531227390, 2.100924676119030998 ) ) ;
#192 = VERTEX_POINT ( 'NONE', #282 ) ;
#193 = DATE_AND_TIME ( #67, #301 ) ;
#194 = ORIENTED_EDGE ( 'NONE', *, *, #275, .T. ) ;
#195 = AXIS2_PLACEMENT_3D ( 'NONE', #15, #40, #316 ) ;
#196 = MECHANICAL_CONTEXT ( 'NONE', #266, 'mechanical' ) ;
#197 = PRODUCT ( 'TTN162804-E0W', 'TTN162804-E0W', '', ( #196 ) ) ;
#198 = PERSON_AND_ORGANIZATION_ROLE ( 'design_owner' ) ;
#199 = AXIS2_PLACEMENT_3D ( 'NONE', #116, #161, #12 ) ;
#200 = PERSON_AND_ORGANIZATION_ROLE ( 'creator' ) ;
#201 = ORIENTED_EDGE ( 'NONE', *, *, #120, .F. ) ;
#202 = AXIS2_PLACEMENT_3D ( 'NONE', #95, #71, #287 ) ;
#203 = PERSON_AND_ORGANIZATION ( #45, #148 ) ;
#204 = DATE_AND_TIME ( #163, #268 ) ;
#205 = CIRCLE ( 'NONE', #159, 0.9500000000000005107 ) ;
#206 = DIRECTION ( 'NONE',  ( 1.000000000000000000, 0.0000000000000000000, 0.0000000000000000000 ) ) ;
#207 = PRODUCT_RELATED_PRODUCT_CATEGORY ( 'detail', '', ( #197 ) ) ;
#208 = VERTEX_POINT ( 'NONE', #191 ) ;
#209 = DIRECTION ( 'NONE',  ( 1.000000000000000000, 0.0000000000000000000, 0.0000000000000000000 ) ) ;
#210 = AXIS2_PLACEMENT_3D ( 'NONE', #213, #34, #158 ) ;
#211 = CARTESIAN_POINT ( 'NONE',  ( 0.5017199247357260194, 0.8143861833531226280, 2.150924676119031265 ) ) ;
#212 = SHAPE_DEFINITION_REPRESENTATION ( #1, #14 ) ;
#213 = CARTESIAN_POINT ( 'NONE',  ( 0.5017199247357260194, 0.8143861833531226280, 2.100924676119030998 ) ) ;
#214 = ORIENTED_EDGE ( 'NONE', *, *, #41, .T. ) ;
#215 = CIRCLE ( 'NONE', #8, 0.9500000000000005107 ) ;
#216 = EDGE_CURVE ( 'NONE', #248, #308, #80, .T. ) ;
#217 = APPROVAL_STATUS ( 'not_yet_approved' ) ;
#218 = CC_DESIGN_PERSON_AND_ORGANIZATION_ASSIGNMENT ( #139, #147, ( #152 ) ) ;
#219 = FACE_OUTER_BOUND ( 'NONE', #22, .T. ) ;
#220 = APPROVAL_ROLE ( '' ) ;
#221 = PERSON_AND_ORGANIZATION ( #45, #148 ) ;
#222 = FACE_OUTER_BOUND ( 'NONE', #134, .T. ) ;
#223 = ORIENTED_EDGE ( 'NONE', *, *, #84, .F. ) ;
#224 = ADVANCED_FACE ( 'NONE', ( #100 ), #3, .T. ) ;
#225 = AXIS2_PLACEMENT_3D ( 'NONE', #73, #125, #284 ) ;
#226 = ADVANCED_FACE ( 'NONE', ( #153 ), #87, .T. ) ;
#227 = LINE ( 'NONE', #109, #189 ) ;
#228 = FACE_OUTER_BOUND ( 'NONE', #54, .T. ) ;
#229 = APPROVAL ( #42, 'UNSPECIFIED' ) ;
#230 = CIRCLE ( 'NONE', #187, 2.750999999999999890 ) ;
#231 = CARTESIAN_POINT ( 'NONE',  ( 0.5017199247357260194, 0.8143861833531226280, 1.370161518894883690 ) ) ;
#232 = EDGE_CURVE ( 'NONE', #311, #208, #117, .T. ) ;
#233 = DIRECTION ( 'NONE',  ( 1.000000000000000000, 0.0000000000000000000, 0.0000000000000000000 ) ) ;
#234 = CYLINDRICAL_SURFACE ( 'NONE', #151, 1.000000000000000000 ) ;
#235 = CARTESIAN_POINT ( 'NONE',  ( 0.5017199247357260194, 0.8143861833531226280, 1.320161518894883423 ) ) ;
#236 = CC_DESIGN_SECURITY_CLASSIFICATION ( #259, ( #318 ) ) ;
#237 = DESIGN_CONTEXT ( 'detailed design', #127, 'design' ) ;
#238 = ORIENTED_EDGE ( 'NONE', *, *, #138, .F. ) ;
#239 = ORIENTED_EDGE ( 'NONE', *, *, #84, .T. ) ;
#240 = CIRCLE ( 'NONE', #195, 0.9500000000000005107 ) ;
#241 = SECURITY_CLASSIFICATION_LEVEL ( 'unclassified' ) ;
#242 = COORDINATED_UNIVERSAL_TIME_OFFSET ( 5, 0, .BEHIND. ) ;
#243 = DIRECTION ( 'NONE',  ( 0.7071067811865444641, 8.659560562354895880E-17, -0.7071067811865505703 ) ) ;
#244 = CC_DESIGN_APPROVAL ( #56, ( #318 ) ) ;
#245 =( NAMED_UNIT ( * ) PLANE_ANGLE_UNIT ( ) SI_UNIT ( $, .RADIAN. ) );
#246 = CARTESIAN_POINT ( 'NONE',  ( 1.451719924735726419, 0.8143861833531226280, 1.320161518894883423 ) ) ;
#247 = VECTOR ( 'NONE', #61, 1000.000000000000000 ) ;
#248 = VERTEX_POINT ( 'NONE', #146 ) ;
#249 = AXIS2_PLACEMENT_3D ( 'NONE', #305, #185, #74 ) ;
#250 = CLOSED_SHELL ( 'NONE', ( #26, #2, #226, #132, #293, #224, #4, #253, #105 ) ) ;
#251 = PERSON_AND_ORGANIZATION ( #45, #148 ) ;
#252 = ORIENTED_EDGE ( 'NONE', *, *, #41, .F. ) ;
#253 = ADVANCED_FACE ( 'NONE', ( #228 ), #77, .T. ) ;
#254 = SPHERICAL_SURFACE ( 'NONE', #33, 2.750999999999999890 ) ;
#255 = DIRECTION ( 'NONE',  ( -0.0000000000000000000, -0.0000000000000000000, 1.000000000000000000 ) ) ;
#256 = ORIENTED_EDGE ( 'NONE', *, *, #120, .T. ) ;
#257 = DATE_AND_TIME ( #131, #321 ) ;
#258 = DIRECTION ( 'NONE',  ( -1.000000000000000000, 0.0000000000000000000, 0.0000000000000000000 ) ) ;
#259 = SECURITY_CLASSIFICATION ( '', '', #241 ) ;
#260 = VERTEX_POINT ( 'NONE', #149 ) ;
#261 = FACE_OUTER_BOUND ( 'NONE', #270, .T. ) ;
#262 = DIRECTION ( 'NONE',  ( 0.0000000000000000000, 0.0000000000000000000, -1.000000000000000000 ) ) ;
#263 = CARTESIAN_POINT ( 'NONE',  ( 0.5017199247357260194, 0.8143861833531226280, 2.100924676119030998 ) ) ;
#264 = VERTEX_POINT ( 'NONE', #315 ) ;
#265 = APPROVAL_ROLE ( '' ) ;
#266 = APPLICATION_CONTEXT ( 'configuration controlled 3d designs of mechanical parts and assemblies' ) ;
#267 = EDGE_LOOP ( 'NONE', ( #292, #320, #37, #44 ) ) ;
#268 = LOCAL_TIME ( 10, 17, 57.00000000000000000, #69 ) ;
#269 = APPROVAL_DATE_TIME ( #101, #142 ) ;
#270 = EDGE_LOOP ( 'NONE', ( #36, #94, #252, #47 ) ) ;
#271 = CC_DESIGN_DATE_AND_TIME_ASSIGNMENT ( #204, #43, ( #259 ) ) ;
#272 = EDGE_CURVE ( 'NONE', #264, #171, #294, .T. ) ;
#273 = DIRECTION ( 'NONE',  ( 0.0000000000000000000, 0.0000000000000000000, -1.000000000000000000 ) ) ;
#274 = FACE_OUTER_BOUND ( 'NONE', #267, .T. ) ;
#275 = EDGE_CURVE ( 'NONE', #283, #192, #28, .T. ) ;
#276 = CARTESIAN_POINT ( 'NONE',  ( 0.5017199247357260194, 0.8143861833531226280, 2.320161518894883645 ) ) ;
#277 = APPROVAL_PERSON_ORGANIZATION ( #85, #229, #265 ) ;
#278 = DIRECTION ( 'NONE',  ( -0.0000000000000000000, -0.0000000000000000000, 1.000000000000000000 ) ) ;
#279 = CC_DESIGN_DATE_AND_TIME_ASSIGNMENT ( #193, #286, ( #152 ) ) ;
#280 = DIRECTION ( 'NONE',  ( 1.000000000000000000, 0.0000000000000000000, 0.0000000000000000000 ) ) ;
#281 = EDGE_CURVE ( 'NONE', #311, #260, #110, .T. ) ;
#282 = CARTESIAN_POINT ( 'NONE',  ( -0.4482800752642743247, 0.8143861833531227390, 1.320161518894883423 ) ) ;
#283 = VERTEX_POINT ( 'NONE', #246 ) ;
#284 = DIRECTION ( 'NONE',  ( 1.000000000000000000, 0.0000000000000000000, 0.0000000000000000000 ) ) ;
#285 = CARTESIAN_POINT ( 'NONE',  ( 0.5017199247357260194, 0.8143861833531228500, 2.320161518894883645 ) ) ;
#286 = DATE_TIME_ROLE ( 'creation_date' ) ;
#287 = DIRECTION ( 'NONE',  ( 1.000000000000000000, 0.0000000000000000000, 0.0000000000000000000 ) ) ;
#288 = PERSON_AND_ORGANIZATION_ROLE ( 'design_supplier' ) ;
#289 = CIRCLE ( 'NONE', #115, 0.9500000000000002887 ) ;
#290 = PERSON_AND_ORGANIZATION ( #45, #148 ) ;
#291 = AXIS2_PLACEMENT_3D ( 'NONE', #53, #31, #57 ) ;
#292 = ORIENTED_EDGE ( 'NONE', *, *, #124, .F. ) ;
#293 = ADVANCED_FACE ( 'NONE', ( #104 ), #13, .F. ) ;
#294 = LINE ( 'NONE', #9, #48 ) ;
#295 =( GEOMETRIC_REPRESENTATION_CONTEXT ( 3 ) GLOBAL_UNCERTAINTY_ASSIGNED_CONTEXT ( ( #25 ) ) GLOBAL_UNIT_ASSIGNED_CONTEXT ( ( #168, #245, #167 ) ) REPRESENTATION_CONTEXT ( 'NONE', 'WORKASPACE' ) );
#296 = DIRECTION ( 'NONE',  ( 1.000000000000000000, 0.0000000000000000000, 0.0000000000000000000 ) ) ;
#297 = ORIENTED_EDGE ( 'NONE', *, *, #138, .T. ) ;
#298 = CIRCLE ( 'NONE', #106, 1.000000000000000000 ) ;
#299 = DIRECTION ( 'NONE',  ( -0.0000000000000000000, -0.0000000000000000000, 1.000000000000000000 ) ) ;
#300 = ORIENTED_EDGE ( 'NONE', *, *, #232, .F. ) ;
#301 = LOCAL_TIME ( 10, 17, 57.00000000000000000, #175 ) ;
#302 = APPROVAL_PERSON_ORGANIZATION ( #221, #142, #220 ) ;
#303 = ORIENTED_EDGE ( 'NONE', *, *, #65, .F. ) ;
#304 = DIRECTION ( 'NONE',  ( -0.0000000000000000000, -0.0000000000000000000, 1.000000000000000000 ) ) ;
#305 = CARTESIAN_POINT ( 'NONE',  ( 0.5017199247357260194, 0.8143861833531226280, -0.4308384811051164665 ) ) ;
#306 = EDGE_CURVE ( 'NONE', #143, #156, #240, .T. ) ;
#307 = DIRECTION ( 'NONE',  ( 1.000000000000000000, 0.0000000000000000000, 0.0000000000000000000 ) ) ;
#308 = VERTEX_POINT ( 'NONE', #285 ) ;
#309 = CARTESIAN_POINT ( 'NONE',  ( 0.5017199247357260194, 0.8143861833531226280, 2.100924676119030998 ) ) ;
#310 = DIRECTION ( 'NONE',  ( 1.000000000000000000, 0.0000000000000000000, 0.0000000000000000000 ) ) ;
#311 = VERTEX_POINT ( 'NONE', #317 ) ;
#312 = CC_DESIGN_PERSON_AND_ORGANIZATION_ASSIGNMENT ( #290, #198, ( #197 ) ) ;
#313 = PERSON_AND_ORGANIZATION ( #45, #148 ) ;
#314 = ORIENTED_EDGE ( 'NONE', *, *, #272, .T. ) ;
#315 = CARTESIAN_POINT ( 'NONE',  ( 1.451719924735726641, 0.8143861833531227390, 2.150924676119031265 ) ) ;
#316 = DIRECTION ( 'NONE',  ( 1.000000000000000000, 0.0000000000000000000, 0.0000000000000000000 ) ) ;
#317 = CARTESIAN_POINT ( 'NONE',  ( -0.4982800752642740361, 0.8143861833531227390, 1.370161518894883690 ) ) ;
#318 = PRODUCT_DEFINITION_FORMATION_WITH_SPECIFIED_SOURCE ( 'ANY', '', #197, .NOT_KNOWN. ) ;
#319 = LINE ( 'NONE', #66, #58 ) ;
#320 = ORIENTED_EDGE ( 'NONE', *, *, #128, .T. ) ;
#321 = LOCAL_TIME ( 10, 17, 57.00000000000000000, #242 ) ;
ENDSEC;
END-ISO-10303-21;
