ISO-10303-21;
HEADER;
FILE_DESCRIPTION (( 'STEP AP203' ),
    '1' );
FILE_NAME ('Web Model 48466_55265.step',
    '2018-03-12T19:22:00',
    ( '' ),
    ( '' ),
    'SwSTEP 2.0',
    'SolidWorks 2016',
    '' );
FILE_SCHEMA (( 'CONFIG_CONTROL_DESIGN' ));
ENDSEC;

DATA;
#1 = DATE_AND_TIME ( #170, #190 ) ;
#2 = EDGE_CURVE ( 'NONE', #79, #51, #225, .T. ) ;
#3 = VECTOR ( 'NONE', #127, 1000.000000000000000 ) ;
#4 = PERSON ( 'UNSPECIFIED', 'UNSPECIFIED', 'UNSPECIFIED', ('UNSPECIFIED'), ('UNSPECIFIED'), ('UNSPECIFIED') ) ;
#5 = DIRECTION ( 'NONE',  ( 0.0000000000000000000, 0.0000000000000000000, 1.000000000000000000 ) ) ;
#6 = ADVANCED_FACE ( 'NONE', ( #13 ), #218, .T. ) ;
#7 = DATE_TIME_ROLE ( 'classification_date' ) ;
#8 = CALENDAR_DATE ( 2018, 12, 3 ) ;
#9 = ORGANIZATION ( 'UNSPECIFIED', 'UNSPECIFIED', '' ) ;
#10 = AXIS2_PLACEMENT_3D ( 'NONE', #32, #153, #69 ) ;
#11 = APPROVAL ( #129, 'UNSPECIFIED' ) ;
#12 = LINE ( 'NONE', #70, #138 ) ;
#13 = FACE_OUTER_BOUND ( 'NONE', #214, .T. ) ;
#14 = CC_DESIGN_APPROVAL ( #11, ( #93 ) ) ;
#15 = VECTOR ( 'NONE', #158, 1000.000000000000000 ) ;
#16 = DIRECTION ( 'NONE',  ( -1.000000000000000000, -0.0000000000000000000, -0.0000000000000000000 ) ) ;
#17 = FACE_OUTER_BOUND ( 'NONE', #151, .T. ) ;
#18 = CARTESIAN_POINT ( 'NONE',  ( 4.750000000000000000, -15.00000000000000400, 15.00000000000000700 ) ) ;
#19 = LINE ( 'NONE', #142, #208 ) ;
#20 = MANIFOLD_SOLID_BREP ( 'Boss-Extrude1', #33 ) ;
#21 = PLANE ( 'NONE',  #140 ) ;
#22 = AXIS2_PLACEMENT_3D ( 'NONE', #123, #43, #90 ) ;
#23 = CARTESIAN_POINT ( 'NONE',  ( 4.750000000000000000, -15.00000000000000400, -15.00000000000000700 ) ) ;
#24 = LINE ( 'NONE', #216, #63 ) ;
#25 = APPROVAL_ROLE ( '' ) ;
#26 = APPLICATION_PROTOCOL_DEFINITION ( 'international standard', 'config_control_design', 1994, #205 ) ;
#27 = DATE_TIME_ROLE ( 'creation_date' ) ;
#28 = VECTOR ( 'NONE', #137, 1000.000000000000000 ) ;
#29 = LOCAL_TIME ( 15, 22, 0.0000000000000000000, #176 ) ;
#30 = APPROVAL_PERSON_ORGANIZATION ( #183, #213, #229 ) ;
#31 = ORIENTED_EDGE ( 'NONE', *, *, #97, .F. ) ;
#32 = CARTESIAN_POINT ( 'NONE',  ( 4.750000000000000000, 14.99999999999998200, 15.00000000000000200 ) ) ;
#33 = CLOSED_SHELL ( 'NONE', ( #143, #161, #150, #75, #6, #89 ) ) ;
#34 = CARTESIAN_POINT ( 'NONE',  ( 4.750000000000000000, 14.99999999999998200, 15.00000000000000200 ) ) ;
#35 = CALENDAR_DATE ( 2018, 12, 3 ) ;
#36 = ORIENTED_EDGE ( 'NONE', *, *, #2, .T. ) ;
#37 = DIRECTION ( 'NONE',  ( 1.000000000000000000, 0.0000000000000000000, 0.0000000000000000000 ) ) ;
#38 = EDGE_CURVE ( 'NONE', #174, #134, #114, .T. ) ;
#39 = COORDINATED_UNIVERSAL_TIME_OFFSET ( 5, 0, .BEHIND. ) ;
#40 = CC_DESIGN_APPROVAL ( #213, ( #188 ) ) ;
#41 = CARTESIAN_POINT ( 'NONE',  ( 4.750000000000000000, 14.99999999999998200, 15.00000000000000200 ) ) ;
#42 = ORIENTED_EDGE ( 'NONE', *, *, #38, .T. ) ;
#43 = DIRECTION ( 'NONE',  ( 0.0000000000000000000, -1.734723475976808100E-016, -1.000000000000000000 ) ) ;
#44 = CC_DESIGN_PERSON_AND_ORGANIZATION_ASSIGNMENT ( #48, #194, ( #93 ) ) ;
#45 = APPROVAL_DATE_TIME ( #234, #195 ) ;
#46 = APPROVAL_STATUS ( 'not_yet_approved' ) ;
#47 = EDGE_CURVE ( 'NONE', #134, #51, #12, .T. ) ;
#48 = PERSON_AND_ORGANIZATION ( #4, #9 ) ;
#49 = PERSON_AND_ORGANIZATION_ROLE ( 'creator' ) ;
#50 = EDGE_CURVE ( 'NONE', #104, #217, #237, .T. ) ;
#51 = VERTEX_POINT ( 'NONE', #122 ) ;
#52 = EDGE_LOOP ( 'NONE', ( #184, #179, #233, #117 ) ) ;
#53 = ORIENTED_EDGE ( 'NONE', *, *, #215, .F. ) ;
#54 = DIRECTION ( 'NONE',  ( -1.000000000000000000, -0.0000000000000000000, -0.0000000000000000000 ) ) ;
#55 = VECTOR ( 'NONE', #110, 1000.000000000000000 ) ;
#56 = ORIENTED_EDGE ( 'NONE', *, *, #230, .T. ) ;
#57 =( LENGTH_UNIT ( ) NAMED_UNIT ( * ) SI_UNIT ( .MILLI., .METRE. ) );
#58 = PERSON_AND_ORGANIZATION_ROLE ( 'design_owner' ) ;
#59 = CARTESIAN_POINT ( 'NONE',  ( 4.750000000000000000, 14.99999999999999600, -15.00000000000000200 ) ) ;
#60 = CC_DESIGN_APPROVAL ( #195, ( #175 ) ) ;
#61 = APPROVAL_STATUS ( 'not_yet_approved' ) ;
#62 = PERSON_AND_ORGANIZATION ( #4, #9 ) ;
#63 = VECTOR ( 'NONE', #118, 1000.000000000000000 ) ;
#64 = CALENDAR_DATE ( 2018, 12, 3 ) ;
#65 = AXIS2_PLACEMENT_3D ( 'NONE', #66, #219, #145 ) ;
#66 = CARTESIAN_POINT ( 'NONE',  ( -4.750000000000000000, 0.0000000000000000000, 0.0000000000000000000 ) ) ;
#67 = LOCAL_TIME ( 15, 22, 0.0000000000000000000, #119 ) ;
#68 = CC_DESIGN_PERSON_AND_ORGANIZATION_ASSIGNMENT ( #196, #49, ( #175 ) ) ;
#69 = DIRECTION ( 'NONE',  ( 0.0000000000000000000, 4.625929269271485900E-016, -1.000000000000000000 ) ) ;
#70 = CARTESIAN_POINT ( 'NONE',  ( -4.750000000000000000, 14.99999999999998200, 15.00000000000000200 ) ) ;
#71 = EDGE_CURVE ( 'NONE', #51, #146, #24, .T. ) ;
#72 =( NAMED_UNIT ( * ) PLANE_ANGLE_UNIT ( ) SI_UNIT ( $, .RADIAN. ) );
#73 = PRODUCT_DEFINITION_SHAPE ( 'NONE', 'NONE',  #188 ) ;
#74 = MECHANICAL_CONTEXT ( 'NONE', #182, 'mechanical' ) ;
#75 = ADVANCED_FACE ( 'NONE', ( #163 ), #136, .F. ) ;
#76 = CARTESIAN_POINT ( 'NONE',  ( 0.0000000000000000000, 0.0000000000000000000, 0.0000000000000000000 ) ) ;
#77 = APPROVAL_DATE_TIME ( #107, #11 ) ;
#78 = PERSON_AND_ORGANIZATION ( #4, #9 ) ;
#79 = VERTEX_POINT ( 'NONE', #87 ) ;
#80 = ORIENTED_EDGE ( 'NONE', *, *, #47, .T. ) ;
#81 = CC_DESIGN_PERSON_AND_ORGANIZATION_ASSIGNMENT ( #135, #192, ( #175 ) ) ;
#82 = ORIENTED_EDGE ( 'NONE', *, *, #2, .F. ) ;
#83 = UNCERTAINTY_MEASURE_WITH_UNIT (LENGTH_MEASURE( 1.000000000000000100E-005 ), #57, 'distance_accuracy_value', 'NONE');
#84 = LOCAL_TIME ( 15, 22, 0.0000000000000000000, #39 ) ;
#85 = AXIS2_PLACEMENT_3D ( 'NONE', #167, #108, #221 ) ;
#86 = VECTOR ( 'NONE', #204, 1000.000000000000000 ) ;
#87 = CARTESIAN_POINT ( 'NONE',  ( 4.750000000000000000, -15.00000000000000400, 15.00000000000000700 ) ) ;
#88 = COORDINATED_UNIVERSAL_TIME_OFFSET ( 5, 0, .BEHIND. ) ;
#89 = ADVANCED_FACE ( 'NONE', ( #212 ), #199, .F. ) ;
#90 = DIRECTION ( 'NONE',  ( 0.0000000000000000000, 1.000000000000000000, -1.734723475976808100E-016 ) ) ;
#91 = PLANE ( 'NONE',  #85 ) ;
#92 = DIRECTION ( 'NONE',  ( 0.0000000000000000000, 0.0000000000000000000, -1.000000000000000000 ) ) ;
#93 = SECURITY_CLASSIFICATION ( '', '', #168 ) ;
#94 = COORDINATED_UNIVERSAL_TIME_OFFSET ( 5, 0, .BEHIND. ) ;
#95 = VECTOR ( 'NONE', #54, 1000.000000000000000 ) ;
#96 = ORIENTED_EDGE ( 'NONE', *, *, #47, .F. ) ;
#97 = EDGE_CURVE ( 'NONE', #203, #146, #211, .T. ) ;
#98 = APPROVAL_PERSON_ORGANIZATION ( #62, #195, #115 ) ;
#99 = ORIENTED_EDGE ( 'NONE', *, *, #215, .T. ) ;
#100 =( GEOMETRIC_REPRESENTATION_CONTEXT ( 3 ) GLOBAL_UNCERTAINTY_ASSIGNED_CONTEXT ( ( #83 ) ) GLOBAL_UNIT_ASSIGNED_CONTEXT ( ( #57, #72, #202 ) ) REPRESENTATION_CONTEXT ( 'NONE', 'WORKASPACE' ) );
#101 = LINE ( 'NONE', #220, #156 ) ;
#102 = VECTOR ( 'NONE', #16, 1000.000000000000000 ) ;
#103 = DIRECTION ( 'NONE',  ( 0.0000000000000000000, 0.0000000000000000000, -1.000000000000000000 ) ) ;
#104 = VERTEX_POINT ( 'NONE', #59 ) ;
#105 = PRODUCT ( 'Web Model 48466_55265', 'Web Model 48466_55265', '', ( #74 ) ) ;
#106 = CARTESIAN_POINT ( 'NONE',  ( 4.750000000000000000, 0.0000000000000000000, 0.0000000000000000000 ) ) ;
#107 = DATE_AND_TIME ( #162, #29 ) ;
#108 = DIRECTION ( 'NONE',  ( 0.0000000000000000000, -1.734723475976807100E-016, 1.000000000000000000 ) ) ;
#109 = CARTESIAN_POINT ( 'NONE',  ( -4.750000000000000000, 14.99999999999998200, 15.00000000000000200 ) ) ;
#110 = DIRECTION ( 'NONE',  ( -0.0000000000000000000, 1.000000000000000000, 1.734723475976807100E-016 ) ) ;
#111 = CARTESIAN_POINT ( 'NONE',  ( -4.750000000000000000, -15.00000000000000400, -15.00000000000000700 ) ) ;
#112 = PERSON_AND_ORGANIZATION ( #4, #9 ) ;
#113 = DIRECTION ( 'NONE',  ( 0.0000000000000000000, -1.000000000000000000, 1.734723475976808100E-016 ) ) ;
#114 = LINE ( 'NONE', #34, #102 ) ;
#115 = APPROVAL_ROLE ( '' ) ;
#116 = VECTOR ( 'NONE', #92, 1000.000000000000000 ) ;
#117 = ORIENTED_EDGE ( 'NONE', *, *, #97, .T. ) ;
#118 = DIRECTION ( 'NONE',  ( 0.0000000000000000000, 0.0000000000000000000, -1.000000000000000000 ) ) ;
#119 = COORDINATED_UNIVERSAL_TIME_OFFSET ( 5, 0, .BEHIND. ) ;
#120 = CC_DESIGN_SECURITY_CLASSIFICATION ( #93, ( #175 ) ) ;
#121 = APPROVAL_DATE_TIME ( #173, #213 ) ;
#122 = CARTESIAN_POINT ( 'NONE',  ( -4.750000000000000000, -15.00000000000000400, 15.00000000000000700 ) ) ;
#123 = CARTESIAN_POINT ( 'NONE',  ( 4.750000000000000000, 14.99999999999998200, 15.00000000000000200 ) ) ;
#124 = CARTESIAN_POINT ( 'NONE',  ( 4.750000000000000000, -15.00000000000000400, -15.00000000000000700 ) ) ;
#125 = DIRECTION ( 'NONE',  ( 0.0000000000000000000, -0.0000000000000000000, 1.000000000000000000 ) ) ;
#126 = ORIENTED_EDGE ( 'NONE', *, *, #38, .F. ) ;
#127 = DIRECTION ( 'NONE',  ( -0.0000000000000000000, -4.625929269271485900E-016, 1.000000000000000000 ) ) ;
#128 = CARTESIAN_POINT ( 'NONE',  ( -4.750000000000000000, 14.99999999999999600, -15.00000000000000200 ) ) ;
#129 = APPROVAL_STATUS ( 'not_yet_approved' ) ;
#130 = ORIENTED_EDGE ( 'NONE', *, *, #186, .T. ) ;
#131 = ORIENTED_EDGE ( 'NONE', *, *, #224, .F. ) ;
#132 = LOCAL_TIME ( 15, 22, 0.0000000000000000000, #88 ) ;
#133 = FACE_OUTER_BOUND ( 'NONE', #52, .T. ) ;
#134 = VERTEX_POINT ( 'NONE', #109 ) ;
#135 = PERSON_AND_ORGANIZATION ( #4, #9 ) ;
#136 = PLANE ( 'NONE',  #10 ) ;
#137 = DIRECTION ( 'NONE',  ( -1.000000000000000000, -0.0000000000000000000, -0.0000000000000000000 ) ) ;
#138 = VECTOR ( 'NONE', #155, 1000.000000000000000 ) ;
#139 = CARTESIAN_POINT ( 'NONE',  ( 4.750000000000000000, 14.99999999999999600, -15.00000000000000200 ) ) ;
#140 = AXIS2_PLACEMENT_3D ( 'NONE', #189, #181, #125 ) ;
#141 = CARTESIAN_POINT ( 'NONE',  ( 4.750000000000000000, -15.00000000000000400, 15.00000000000000700 ) ) ;
#142 = CARTESIAN_POINT ( 'NONE',  ( 4.750000000000000000, 14.99999999999998200, 15.00000000000000200 ) ) ;
#143 = ADVANCED_FACE ( 'NONE', ( #17 ), #223, .F. ) ;
#144 = CARTESIAN_POINT ( 'NONE',  ( 4.750000000000000000, 14.99999999999998200, 15.00000000000000200 ) ) ;
#145 = DIRECTION ( 'NONE',  ( 0.0000000000000000000, 0.0000000000000000000, -1.000000000000000000 ) ) ;
#146 = VERTEX_POINT ( 'NONE', #111 ) ;
#147 = PERSON_AND_ORGANIZATION_ROLE ( 'creator' ) ;
#148 = ORIENTED_EDGE ( 'NONE', *, *, #186, .F. ) ;
#149 = ORIENTED_EDGE ( 'NONE', *, *, #71, .F. ) ;
#150 = ADVANCED_FACE ( 'NONE', ( #133 ), #91, .F. ) ;
#151 = EDGE_LOOP ( 'NONE', ( #80, #82, #53, #42 ) ) ;
#152 = AXIS2_PLACEMENT_3D ( 'NONE', #106, #180, #103 ) ;
#153 = DIRECTION ( 'NONE',  ( 0.0000000000000000000, -1.000000000000000000, -4.625929269271485900E-016 ) ) ;
#154 = ORIENTED_EDGE ( 'NONE', *, *, #236, .T. ) ;
#155 = DIRECTION ( 'NONE',  ( 0.0000000000000000000, -1.000000000000000000, 1.734723475976808100E-016 ) ) ;
#156 = VECTOR ( 'NONE', #226, 1000.000000000000000 ) ;
#157 = ORIENTED_EDGE ( 'NONE', *, *, #236, .F. ) ;
#158 = DIRECTION ( 'NONE',  ( -0.0000000000000000000, -4.625929269271485900E-016, 1.000000000000000000 ) ) ;
#159 = CC_DESIGN_PERSON_AND_ORGANIZATION_ASSIGNMENT ( #112, #58, ( #105 ) ) ;
#160 = APPLICATION_PROTOCOL_DEFINITION ( 'international standard', 'config_control_design', 1994, #182 ) ;
#161 = ADVANCED_FACE ( 'NONE', ( #231 ), #21, .F. ) ;
#162 = CALENDAR_DATE ( 2018, 12, 3 ) ;
#163 = FACE_OUTER_BOUND ( 'NONE', #209, .T. ) ;
#164 = CC_DESIGN_DATE_AND_TIME_ASSIGNMENT ( #232, #7, ( #93 ) ) ;
#165 = EDGE_LOOP ( 'NONE', ( #96, #131, #171, #149 ) ) ;
#166 = EDGE_LOOP ( 'NONE', ( #198, #31, #157, #36 ) ) ;
#167 = CARTESIAN_POINT ( 'NONE',  ( 4.750000000000000000, 14.99999999999999600, -15.00000000000000200 ) ) ;
#168 = SECURITY_CLASSIFICATION_LEVEL ( 'unclassified' ) ;
#169 = ADVANCED_BREP_SHAPE_REPRESENTATION ( 'Web Model 48466_55265', ( #20, #200 ), #100 ) ;
#170 = CALENDAR_DATE ( 2018, 12, 3 ) ;
#171 = ORIENTED_EDGE ( 'NONE', *, *, #193, .F. ) ;
#172 = PERSON_AND_ORGANIZATION ( #4, #9 ) ;
#173 = DATE_AND_TIME ( #64, #67 ) ;
#174 = VERTEX_POINT ( 'NONE', #144 ) ;
#175 = PRODUCT_DEFINITION_FORMATION_WITH_SPECIFIED_SOURCE ( 'ANY', '', #105, .NOT_KNOWN. ) ;
#176 = COORDINATED_UNIVERSAL_TIME_OFFSET ( 5, 0, .BEHIND. ) ;
#177 = LINE ( 'NONE', #206, #55 ) ;
#178 = ORIENTED_EDGE ( 'NONE', *, *, #50, .T. ) ;
#179 = ORIENTED_EDGE ( 'NONE', *, *, #50, .F. ) ;
#180 = DIRECTION ( 'NONE',  ( 1.000000000000000000, 0.0000000000000000000, 0.0000000000000000000 ) ) ;
#181 = DIRECTION ( 'NONE',  ( -0.0000000000000000000, 1.000000000000000000, 0.0000000000000000000 ) ) ;
#182 = APPLICATION_CONTEXT ( 'configuration controlled 3d designs of mechanical parts and assemblies' ) ;
#183 = PERSON_AND_ORGANIZATION ( #4, #9 ) ;
#184 = ORIENTED_EDGE ( 'NONE', *, *, #193, .T. ) ;
#185 = CARTESIAN_POINT ( 'NONE',  ( -4.750000000000000000, 14.99999999999998200, 15.00000000000000200 ) ) ;
#186 = EDGE_CURVE ( 'NONE', #104, #174, #197, .T. ) ;
#187 = DESIGN_CONTEXT ( 'detailed design', #205, 'design' ) ;
#188 = PRODUCT_DEFINITION ( 'UNKNOWN', '', #175, #187 ) ;
#189 = CARTESIAN_POINT ( 'NONE',  ( 4.750000000000000000, -15.00000000000000400, 15.00000000000000700 ) ) ;
#190 = LOCAL_TIME ( 15, 22, 0.0000000000000000000, #94 ) ;
#191 = PRODUCT_RELATED_PRODUCT_CATEGORY ( 'detail', '', ( #105 ) ) ;
#192 = PERSON_AND_ORGANIZATION_ROLE ( 'design_supplier' ) ;
#193 = EDGE_CURVE ( 'NONE', #146, #217, #101, .T. ) ;
#194 = PERSON_AND_ORGANIZATION_ROLE ( 'classification_officer' ) ;
#195 = APPROVAL ( #46, 'UNSPECIFIED' ) ;
#196 = PERSON_AND_ORGANIZATION ( #4, #9 ) ;
#197 = LINE ( 'NONE', #41, #15 ) ;
#198 = ORIENTED_EDGE ( 'NONE', *, *, #71, .T. ) ;
#199 = PLANE ( 'NONE',  #65 ) ;
#200 = AXIS2_PLACEMENT_3D ( 'NONE', #76, #5, #37 ) ;
#201 = LINE ( 'NONE', #185, #3 ) ;
#202 =( NAMED_UNIT ( * ) SI_UNIT ( $, .STERADIAN. ) SOLID_ANGLE_UNIT ( ) );
#203 = VERTEX_POINT ( 'NONE', #124 ) ;
#204 = DIRECTION ( 'NONE',  ( -1.000000000000000000, -0.0000000000000000000, -0.0000000000000000000 ) ) ;
#205 = APPLICATION_CONTEXT ( 'configuration controlled 3d designs of mechanical parts and assemblies' ) ;
#206 = CARTESIAN_POINT ( 'NONE',  ( 4.750000000000000000, 14.99999999999999600, -15.00000000000000200 ) ) ;
#207 = LINE ( 'NONE', #141, #116 ) ;
#208 = VECTOR ( 'NONE', #113, 1000.000000000000000 ) ;
#209 = EDGE_LOOP ( 'NONE', ( #235, #126, #148, #178 ) ) ;
#210 = CC_DESIGN_PERSON_AND_ORGANIZATION_ASSIGNMENT ( #78, #147, ( #188 ) ) ;
#211 = LINE ( 'NONE', #23, #86 ) ;
#212 = FACE_OUTER_BOUND ( 'NONE', #165, .T. ) ;
#213 = APPROVAL ( #61, 'UNSPECIFIED' ) ;
#214 = EDGE_LOOP ( 'NONE', ( #99, #154, #56, #130 ) ) ;
#215 = EDGE_CURVE ( 'NONE', #174, #79, #19, .T. ) ;
#216 = CARTESIAN_POINT ( 'NONE',  ( -4.750000000000000000, -15.00000000000000400, 15.00000000000000700 ) ) ;
#217 = VERTEX_POINT ( 'NONE', #128 ) ;
#218 = PLANE ( 'NONE',  #152 ) ;
#219 = DIRECTION ( 'NONE',  ( 1.000000000000000000, 0.0000000000000000000, 0.0000000000000000000 ) ) ;
#220 = CARTESIAN_POINT ( 'NONE',  ( -4.750000000000000000, 14.99999999999999600, -15.00000000000000200 ) ) ;
#221 = DIRECTION ( 'NONE',  ( 0.0000000000000000000, -1.000000000000000000, -1.734723475976807100E-016 ) ) ;
#222 = SHAPE_DEFINITION_REPRESENTATION ( #73, #169 ) ;
#223 = PLANE ( 'NONE',  #22 ) ;
#224 = EDGE_CURVE ( 'NONE', #217, #134, #201, .T. ) ;
#225 = LINE ( 'NONE', #18, #28 ) ;
#226 = DIRECTION ( 'NONE',  ( -0.0000000000000000000, 1.000000000000000000, 1.734723475976807100E-016 ) ) ;
#227 = APPROVAL_PERSON_ORGANIZATION ( #172, #11, #25 ) ;
#228 = CC_DESIGN_DATE_AND_TIME_ASSIGNMENT ( #1, #27, ( #188 ) ) ;
#229 = APPROVAL_ROLE ( '' ) ;
#230 = EDGE_CURVE ( 'NONE', #203, #104, #177, .T. ) ;
#231 = FACE_OUTER_BOUND ( 'NONE', #166, .T. ) ;
#232 = DATE_AND_TIME ( #35, #84 ) ;
#233 = ORIENTED_EDGE ( 'NONE', *, *, #230, .F. ) ;
#234 = DATE_AND_TIME ( #8, #132 ) ;
#235 = ORIENTED_EDGE ( 'NONE', *, *, #224, .T. ) ;
#236 = EDGE_CURVE ( 'NONE', #79, #203, #207, .T. ) ;
#237 = LINE ( 'NONE', #139, #95 ) ;
ENDSEC;
END-ISO-10303-21;
