ISO-10303-21;
HEADER;
FILE_DESCRIPTION (( 'STEP AP203' ),
    '1' );
FILE_NAME ('Web Model 47568_48575.step',
    '2017-04-26T17:12:29',
    ( '' ),
    ( '' ),
    'SwSTEP 2.0',
    'SolidWorks 2016',
    '' );
FILE_SCHEMA (( 'CONFIG_CONTROL_DESIGN' ));
ENDSEC;

DATA;
#1 = EDGE_LOOP ( 'NONE', ( #165, #193, #142, #35 ) ) ;
#2 = CARTESIAN_POINT ( 'NONE',  ( -17.50000000000000000, 17.50000000000000000, 17.50000000000000000 ) ) ;
#3 = PLANE ( 'NONE',  #291 ) ;
#4 = DIRECTION ( 'NONE',  ( 1.000000000000000000, 0.0000000000000000000, 0.0000000000000000000 ) ) ;
#5 = FACE_OUTER_BOUND ( 'NONE', #254, .T. ) ;
#6 = PERSON_AND_ORGANIZATION_ROLE ( 'creator' ) ;
#7 = CARTESIAN_POINT ( 'NONE',  ( -17.50000000000000000, 17.50000000000000000, 17.50000000000000000 ) ) ;
#8 = FACE_OUTER_BOUND ( 'NONE', #192, .T. ) ;
#9 = APPROVAL_DATE_TIME ( #280, #62 ) ;
#10 = APPLICATION_PROTOCOL_DEFINITION ( 'international standard', 'config_control_design', 1994, #42 ) ;
#11 = AXIS2_PLACEMENT_3D ( 'NONE', #260, #16, #210 ) ;
#12 = SECURITY_CLASSIFICATION_LEVEL ( 'unclassified' ) ;
#13 = ADVANCED_FACE ( 'NONE', ( #73 ), #266, .T. ) ;
#14 = ORIENTED_EDGE ( 'NONE', *, *, #98, .T. ) ;
#15 = DIRECTION ( 'NONE',  ( 0.0000000000000000000, 0.0000000000000000000, 1.000000000000000000 ) ) ;
#16 = DIRECTION ( 'NONE',  ( -0.0000000000000000000, 0.0000000000000000000, 1.000000000000000000 ) ) ;
#17 = APPROVAL_ROLE ( '' ) ;
#18 = PLANE ( 'NONE',  #71 ) ;
#19 = PERSON_AND_ORGANIZATION ( #33, #267 ) ;
#20 = SECURITY_CLASSIFICATION ( '', '', #12 ) ;
#21 = COORDINATED_UNIVERSAL_TIME_OFFSET ( 5, 0, .BEHIND. ) ;
#22 = ORIENTED_EDGE ( 'NONE', *, *, #232, .F. ) ;
#23 = ORIENTED_EDGE ( 'NONE', *, *, #279, .F. ) ;
#24 = DIRECTION ( 'NONE',  ( -0.0000000000000000000, -0.0000000000000000000, -1.000000000000000000 ) ) ;
#25 = DIRECTION ( 'NONE',  ( 0.7071067811865474600, -0.7071067811865474600, 0.0000000000000000000 ) ) ;
#26 = VERTEX_POINT ( 'NONE', #7 ) ;
#27 = CARTESIAN_POINT ( 'NONE',  ( 0.0000000000000000000, -17.50000000000000000, 17.50000000000000000 ) ) ;
#28 = CC_DESIGN_PERSON_AND_ORGANIZATION_ASSIGNMENT ( #190, #6, ( #80 ) ) ;
#29 = VECTOR ( 'NONE', #316, 1000.000000000000000 ) ;
#30 = CARTESIAN_POINT ( 'NONE',  ( -17.50000000000000000, 0.0000000000000000000, 17.50000000000000000 ) ) ;
#31 = EDGE_LOOP ( 'NONE', ( #139, #37, #23 ) ) ;
#32 = ORIENTED_EDGE ( 'NONE', *, *, #145, .F. ) ;
#33 = PERSON ( 'UNSPECIFIED', 'UNSPECIFIED', 'UNSPECIFIED', ('UNSPECIFIED'), ('UNSPECIFIED'), ('UNSPECIFIED') ) ;
#34 = VECTOR ( 'NONE', #189, 1000.000000000000000 ) ;
#35 = ORIENTED_EDGE ( 'NONE', *, *, #274, .T. ) ;
#36 = EDGE_LOOP ( 'NONE', ( #159, #75, #83 ) ) ;
#37 = ORIENTED_EDGE ( 'NONE', *, *, #86, .T. ) ;
#38 = CALENDAR_DATE ( 2017, 26, 4 ) ;
#39 = CARTESIAN_POINT ( 'NONE',  ( 17.50000000000000000, -17.50000000000000000, 17.50000000000000000 ) ) ;
#40 = VECTOR ( 'NONE', #297, 1000.000000000000000 ) ;
#41 = CC_DESIGN_APPROVAL ( #76, ( #80 ) ) ;
#42 = APPLICATION_CONTEXT ( 'configuration controlled 3d designs of mechanical parts and assemblies' ) ;
#43 = COORDINATED_UNIVERSAL_TIME_OFFSET ( 5, 0, .BEHIND. ) ;
#44 = AXIS2_PLACEMENT_3D ( 'NONE', #85, #204, #79 ) ;
#45 = VERTEX_POINT ( 'NONE', #126 ) ;
#46 = CARTESIAN_POINT ( 'NONE',  ( 0.0000000000000000000, 0.0000000000000000000, 17.50000000000000000 ) ) ;
#47 = ORIENTED_EDGE ( 'NONE', *, *, #156, .T. ) ;
#48 = ORIENTED_EDGE ( 'NONE', *, *, #134, .F. ) ;
#49 = CARTESIAN_POINT ( 'NONE',  ( 17.50000000000000000, 17.50000000000000000, 17.50000000000000000 ) ) ;
#50 = LINE ( 'NONE', #263, #265 ) ;
#51 = LOCAL_TIME ( 13, 12, 29.00000000000000000, #261 ) ;
#52 = FACE_OUTER_BOUND ( 'NONE', #119, .T. ) ;
#53 = LINE ( 'NONE', #46, #196 ) ;
#54 = LINE ( 'NONE', #30, #188 ) ;
#55 = PRODUCT ( 'Web Model 47568_48575', 'Web Model 47568_48575', '', ( #283 ) ) ;
#56 = CARTESIAN_POINT ( 'NONE',  ( -17.50000000000000000, 0.0000000000000000000, -17.50000000000000000 ) ) ;
#57 = CC_DESIGN_PERSON_AND_ORGANIZATION_ASSIGNMENT ( #276, #198, ( #55 ) ) ;
#58 = CARTESIAN_POINT ( 'NONE',  ( 0.0000000000000000000, 0.0000000000000000000, 17.50000000000000000 ) ) ;
#59 = DATE_TIME_ROLE ( 'classification_date' ) ;
#60 = VECTOR ( 'NONE', #123, 1000.000000000000000 ) ;
#61 = ORIENTED_EDGE ( 'NONE', *, *, #224, .F. ) ;
#62 = APPROVAL ( #115, 'UNSPECIFIED' ) ;
#63 = CARTESIAN_POINT ( 'NONE',  ( -0.0000000000000000000, 17.50000000000000000, -17.50000000000000000 ) ) ;
#64 =( NAMED_UNIT ( * ) PLANE_ANGLE_UNIT ( ) SI_UNIT ( $, .RADIAN. ) );
#65 = ORIENTED_EDGE ( 'NONE', *, *, #220, .T. ) ;
#66 = CARTESIAN_POINT ( 'NONE',  ( 17.50000000000000000, -17.50000000000000000, 17.50000000000000000 ) ) ;
#67 = DIRECTION ( 'NONE',  ( 1.000000000000000000, 0.0000000000000000000, 0.0000000000000000000 ) ) ;
#68 = EDGE_CURVE ( 'NONE', #286, #296, #249, .T. ) ;
#69 = DIRECTION ( 'NONE',  ( -0.0000000000000000000, -0.0000000000000000000, -1.000000000000000000 ) ) ;
#70 = VECTOR ( 'NONE', #182, 1000.000000000000000 ) ;
#71 = AXIS2_PLACEMENT_3D ( 'NONE', #270, #74, #15 ) ;
#72 = VERTEX_POINT ( 'NONE', #278 ) ;
#73 = FACE_OUTER_BOUND ( 'NONE', #245, .T. ) ;
#74 = DIRECTION ( 'NONE',  ( -1.000000000000000000, 0.0000000000000000000, 0.0000000000000000000 ) ) ;
#75 = ORIENTED_EDGE ( 'NONE', *, *, #227, .T. ) ;
#76 = APPROVAL ( #120, 'UNSPECIFIED' ) ;
#77 = CARTESIAN_POINT ( 'NONE',  ( 0.0000000000000000000, 0.0000000000000000000, 17.50000000000000000 ) ) ;
#78 = VECTOR ( 'NONE', #157, 1000.000000000000000 ) ;
#79 = DIRECTION ( 'NONE',  ( 0.0000000000000000000, -0.0000000000000000000, 1.000000000000000000 ) ) ;
#80 = PRODUCT_DEFINITION_FORMATION_WITH_SPECIFIED_SOURCE ( 'ANY', '', #55, .NOT_KNOWN. ) ;
#81 = ORIENTED_EDGE ( 'NONE', *, *, #251, .F. ) ;
#82 = CARTESIAN_POINT ( 'NONE',  ( 17.50000000000000000, -17.50000000000000000, 17.50000000000000000 ) ) ;
#83 = ORIENTED_EDGE ( 'NONE', *, *, #258, .F. ) ;
#84 = VERTEX_POINT ( 'NONE', #153 ) ;
#85 = CARTESIAN_POINT ( 'NONE',  ( 0.0000000000000000000, 17.50000000000000000, 17.50000000000000000 ) ) ;
#86 = EDGE_CURVE ( 'NONE', #314, #288, #50, .T. ) ;
#87 = PLANE ( 'NONE',  #44 ) ;
#88 = DATE_TIME_ROLE ( 'creation_date' ) ;
#89 = DIRECTION ( 'NONE',  ( 0.0000000000000000000, 0.0000000000000000000, 1.000000000000000000 ) ) ;
#90 = CALENDAR_DATE ( 2017, 26, 4 ) ;
#91 = VECTOR ( 'NONE', #101, 1000.000000000000000 ) ;
#92 = LOCAL_TIME ( 13, 12, 29.00000000000000000, #137 ) ;
#93 = PRODUCT_DEFINITION ( 'UNKNOWN', '', #80, #298 ) ;
#94 = DIRECTION ( 'NONE',  ( 0.0000000000000000000, 0.0000000000000000000, 1.000000000000000000 ) ) ;
#95 = APPROVAL ( #160, 'UNSPECIFIED' ) ;
#96 = PLANE ( 'NONE',  #162 ) ;
#97 = CALENDAR_DATE ( 2017, 26, 4 ) ;
#98 = EDGE_CURVE ( 'NONE', #296, #84, #231, .T. ) ;
#99 = DIRECTION ( 'NONE',  ( -0.7071067811865474600, 0.7071067811865474600, 0.0000000000000000000 ) ) ;
#100 = VECTOR ( 'NONE', #25, 1000.000000000000100 ) ;
#101 = DIRECTION ( 'NONE',  ( 1.000000000000000000, 0.0000000000000000000, 0.0000000000000000000 ) ) ;
#102 = ADVANCED_FACE ( 'NONE', ( #104 ), #216, .F. ) ;
#103 = ADVANCED_FACE ( 'NONE', ( #143 ), #96, .T. ) ;
#104 = FACE_OUTER_BOUND ( 'NONE', #31, .T. ) ;
#105 = LINE ( 'NONE', #271, #213 ) ;
#106 = AXIS2_PLACEMENT_3D ( 'NONE', #253, #206, #244 ) ;
#107 = ORIENTED_EDGE ( 'NONE', *, *, #258, .T. ) ;
#108 = ADVANCED_FACE ( 'NONE', ( #8 ), #293, .F. ) ;
#109 = LINE ( 'NONE', #63, #301 ) ;
#110 = APPROVAL_ROLE ( '' ) ;
#111 = CC_DESIGN_DATE_AND_TIME_ASSIGNMENT ( #218, #88, ( #93 ) ) ;
#112 = CC_DESIGN_PERSON_AND_ORGANIZATION_ASSIGNMENT ( #223, #256, ( #93 ) ) ;
#113 = CARTESIAN_POINT ( 'NONE',  ( 0.0000000000000000000, -17.50000000000000000, 17.50000000000000000 ) ) ;
#114 = DATE_AND_TIME ( #38, #177 ) ;
#115 = APPROVAL_STATUS ( 'not_yet_approved' ) ;
#116 = FACE_OUTER_BOUND ( 'NONE', #36, .T. ) ;
#117 = AXIS2_PLACEMENT_3D ( 'NONE', #129, #130, #67 ) ;
#118 = DIRECTION ( 'NONE',  ( 1.000000000000000000, 0.0000000000000000000, 0.0000000000000000000 ) ) ;
#119 = EDGE_LOOP ( 'NONE', ( #81, #32, #212, #319 ) ) ;
#120 = APPROVAL_STATUS ( 'not_yet_approved' ) ;
#121 = CARTESIAN_POINT ( 'NONE',  ( 0.0000000000000000000, 0.0000000000000000000, 0.0000000000000000000 ) ) ;
#122 = AXIS2_PLACEMENT_3D ( 'NONE', #242, #184, #94 ) ;
#123 = DIRECTION ( 'NONE',  ( -0.0000000000000000000, -0.0000000000000000000, -1.000000000000000000 ) ) ;
#124 = DIRECTION ( 'NONE',  ( -0.7071067811865474600, 0.7071067811865474600, 0.0000000000000000000 ) ) ;
#125 = DIRECTION ( 'NONE',  ( 0.0000000000000000000, 1.000000000000000000, 0.0000000000000000000 ) ) ;
#126 = CARTESIAN_POINT ( 'NONE',  ( -17.50000000000000000, 17.50000000000000000, -17.50000000000000000 ) ) ;
#127 = VECTOR ( 'NONE', #197, 1000.000000000000100 ) ;
#128 = EDGE_LOOP ( 'NONE', ( #14, #207, #310, #222 ) ) ;
#129 = CARTESIAN_POINT ( 'NONE',  ( 0.0000000000000000000, 0.0000000000000000000, -17.50000000000000000 ) ) ;
#130 = DIRECTION ( 'NONE',  ( -0.0000000000000000000, 0.0000000000000000000, 1.000000000000000000 ) ) ;
#131 = SHAPE_DEFINITION_REPRESENTATION ( #290, #309 ) ;
#132 = MANIFOLD_SOLID_BREP ( 'Boss-Extrude2', #241 ) ;
#133 = ADVANCED_FACE ( 'NONE', ( #277 ), #321, .F. ) ;
#134 = EDGE_CURVE ( 'NONE', #199, #320, #307, .T. ) ;
#135 = ADVANCED_FACE ( 'NONE', ( #5 ), #3, .F. ) ;
#136 = PLANE ( 'NONE',  #269 ) ;
#137 = COORDINATED_UNIVERSAL_TIME_OFFSET ( 5, 0, .BEHIND. ) ;
#138 = DIRECTION ( 'NONE',  ( 0.0000000000000000000, 1.000000000000000000, -0.0000000000000000000 ) ) ;
#139 = ORIENTED_EDGE ( 'NONE', *, *, #251, .T. ) ;
#140 = MANIFOLD_SOLID_BREP ( 'Boss-Extrude3', #209 ) ;
#141 = EDGE_CURVE ( 'NONE', #158, #320, #53, .T. ) ;
#142 = ORIENTED_EDGE ( 'NONE', *, *, #141, .T. ) ;
#143 = FACE_OUTER_BOUND ( 'NONE', #1, .T. ) ;
#144 = VECTOR ( 'NONE', #287, 1000.000000000000000 ) ;
#145 = EDGE_CURVE ( 'NONE', #199, #72, #147, .T. ) ;
#146 = EDGE_CURVE ( 'NONE', #214, #84, #226, .T. ) ;
#147 = LINE ( 'NONE', #221, #195 ) ;
#148 = ORIENTED_EDGE ( 'NONE', *, *, #146, .T. ) ;
#149 = CALENDAR_DATE ( 2017, 26, 4 ) ;
#150 =( NAMED_UNIT ( * ) SI_UNIT ( $, .STERADIAN. ) SOLID_ANGLE_UNIT ( ) );
#151 = CC_DESIGN_APPROVAL ( #95, ( #93 ) ) ;
#152 = VECTOR ( 'NONE', #4, 1000.000000000000000 ) ;
#153 = CARTESIAN_POINT ( 'NONE',  ( 17.50000000000000000, 17.50000000000000000, -17.50000000000000000 ) ) ;
#154 = FACE_OUTER_BOUND ( 'NONE', #128, .T. ) ;
#155 = ORIENTED_EDGE ( 'NONE', *, *, #220, .F. ) ;
#156 = EDGE_CURVE ( 'NONE', #45, #296, #306, .T. ) ;
#157 = DIRECTION ( 'NONE',  ( -0.0000000000000000000, -0.0000000000000000000, -1.000000000000000000 ) ) ;
#158 = VERTEX_POINT ( 'NONE', #2 ) ;
#159 = ORIENTED_EDGE ( 'NONE', *, *, #224, .T. ) ;
#160 = APPROVAL_STATUS ( 'not_yet_approved' ) ;
#161 = APPLICATION_CONTEXT ( 'configuration controlled 3d designs of mechanical parts and assemblies' ) ;
#162 = AXIS2_PLACEMENT_3D ( 'NONE', #205, #211, #124 ) ;
#163 = ORIENTED_EDGE ( 'NONE', *, *, #156, .F. ) ;
#164 = CC_DESIGN_DATE_AND_TIME_ASSIGNMENT ( #170, #59, ( #20 ) ) ;
#165 = ORIENTED_EDGE ( 'NONE', *, *, #86, .F. ) ;
#166 = UNCERTAINTY_MEASURE_WITH_UNIT (LENGTH_MEASURE( 1.000000000000000100E-005 ), #183, 'distance_accuracy_value', 'NONE');
#167 = DIRECTION ( 'NONE',  ( 0.0000000000000000000, -0.0000000000000000000, 1.000000000000000000 ) ) ;
#168 = ORIENTED_EDGE ( 'NONE', *, *, #172, .F. ) ;
#169 = CC_DESIGN_PERSON_AND_ORGANIZATION_ASSIGNMENT ( #284, #246, ( #20 ) ) ;
#170 = DATE_AND_TIME ( #149, #185 ) ;
#171 = DATE_AND_TIME ( #273, #92 ) ;
#172 = EDGE_CURVE ( 'NONE', #199, #158, #54, .T. ) ;
#173 = LOCAL_TIME ( 13, 12, 29.00000000000000000, #303 ) ;
#174 = CARTESIAN_POINT ( 'NONE',  ( 17.50000000000000000, 0.0000000000000000000, 17.50000000000000000 ) ) ;
#175 = APPROVAL_PERSON_ORGANIZATION ( #181, #62, #17 ) ;
#176 = DIRECTION ( 'NONE',  ( 0.7071067811865475700, 0.7071067811865475700, -0.0000000000000000000 ) ) ;
#177 = LOCAL_TIME ( 13, 12, 29.00000000000000000, #43 ) ;
#178 = CARTESIAN_POINT ( 'NONE',  ( -0.0000000000000000000, 0.0000000000000000000, -17.50000000000000000 ) ) ;
#179 = ORIENTED_EDGE ( 'NONE', *, *, #98, .F. ) ;
#180 = PRODUCT_RELATED_PRODUCT_CATEGORY ( 'detail', '', ( #55 ) ) ;
#181 = PERSON_AND_ORGANIZATION ( #33, #267 ) ;
#182 = DIRECTION ( 'NONE',  ( 1.000000000000000000, 0.0000000000000000000, 0.0000000000000000000 ) ) ;
#183 =( LENGTH_UNIT ( ) NAMED_UNIT ( * ) SI_UNIT ( .MILLI., .METRE. ) );
#184 = DIRECTION ( 'NONE',  ( -1.000000000000000000, 0.0000000000000000000, 0.0000000000000000000 ) ) ;
#185 = LOCAL_TIME ( 13, 12, 29.00000000000000000, #21 ) ;
#186 = VECTOR ( 'NONE', #138, 1000.000000000000000 ) ;
#187 = LINE ( 'NONE', #56, #186 ) ;
#188 = VECTOR ( 'NONE', #219, 1000.000000000000000 ) ;
#189 = DIRECTION ( 'NONE',  ( -0.0000000000000000000, -0.0000000000000000000, -1.000000000000000000 ) ) ;
#190 = PERSON_AND_ORGANIZATION ( #33, #267 ) ;
#191 = DIRECTION ( 'NONE',  ( 1.000000000000000000, 0.0000000000000000000, 0.0000000000000000000 ) ) ;
#192 = EDGE_LOOP ( 'NONE', ( #318, #295, #48, #292 ) ) ;
#193 = ORIENTED_EDGE ( 'NONE', *, *, #229, .F. ) ;
#194 = ADVANCED_FACE ( 'NONE', ( #208 ), #87, .T. ) ;
#195 = VECTOR ( 'NONE', #24, 1000.000000000000000 ) ;
#196 = VECTOR ( 'NONE', #317, 1000.000000000000100 ) ;
#197 = DIRECTION ( 'NONE',  ( 0.7071067811865474600, -0.7071067811865474600, 0.0000000000000000000 ) ) ;
#198 = PERSON_AND_ORGANIZATION_ROLE ( 'design_owner' ) ;
#199 = VERTEX_POINT ( 'NONE', #252 ) ;
#200 = CARTESIAN_POINT ( 'NONE',  ( 17.50000000000000000, -17.50000000000000000, 17.50000000000000000 ) ) ;
#201 = ORIENTED_EDGE ( 'NONE', *, *, #134, .T. ) ;
#202 = LINE ( 'NONE', #58, #100 ) ;
#203 = PERSON_AND_ORGANIZATION ( #33, #267 ) ;
#204 = DIRECTION ( 'NONE',  ( 0.0000000000000000000, 1.000000000000000000, 0.0000000000000000000 ) ) ;
#205 = CARTESIAN_POINT ( 'NONE',  ( 0.0000000000000000000, 0.0000000000000000000, 17.50000000000000000 ) ) ;
#206 = DIRECTION ( 'NONE',  ( -0.0000000000000000000, 0.0000000000000000000, 1.000000000000000000 ) ) ;
#207 = ORIENTED_EDGE ( 'NONE', *, *, #146, .F. ) ;
#208 = FACE_OUTER_BOUND ( 'NONE', #235, .T. ) ;
#209 = CLOSED_SHELL ( 'NONE', ( #135, #236, #194, #268, #133 ) ) ;
#210 = DIRECTION ( 'NONE',  ( 1.000000000000000000, 0.0000000000000000000, 0.0000000000000000000 ) ) ;
#211 = DIRECTION ( 'NONE',  ( 0.7071067811865475700, 0.7071067811865475700, -0.0000000000000000000 ) ) ;
#212 = ORIENTED_EDGE ( 'NONE', *, *, #172, .T. ) ;
#213 = VECTOR ( 'NONE', #69, 1000.000000000000000 ) ;
#214 = VERTEX_POINT ( 'NONE', #282 ) ;
#215 = DIRECTION ( 'NONE',  ( 0.7071067811865474600, -0.7071067811865474600, 0.0000000000000000000 ) ) ;
#216 = PLANE ( 'NONE',  #117 ) ;
#217 = CC_DESIGN_SECURITY_CLASSIFICATION ( #20, ( #80 ) ) ;
#218 = DATE_AND_TIME ( #90, #173 ) ;
#219 = DIRECTION ( 'NONE',  ( 0.0000000000000000000, 1.000000000000000000, -0.0000000000000000000 ) ) ;
#220 = EDGE_CURVE ( 'NONE', #26, #45, #281, .T. ) ;
#221 = CARTESIAN_POINT ( 'NONE',  ( -17.50000000000000000, -17.50000000000000000, 17.50000000000000000 ) ) ;
#222 = ORIENTED_EDGE ( 'NONE', *, *, #68, .T. ) ;
#223 = PERSON_AND_ORGANIZATION ( #33, #267 ) ;
#224 = EDGE_CURVE ( 'NONE', #26, #286, #202, .T. ) ;
#225 = CARTESIAN_POINT ( 'NONE',  ( 17.50000000000000000, -17.50000000000000000, -17.50000000000000000 ) ) ;
#226 = LINE ( 'NONE', #49, #34 ) ;
#227 = EDGE_CURVE ( 'NONE', #286, #214, #299, .T. ) ;
#228 = CARTESIAN_POINT ( 'NONE',  ( -17.50000000000000000, 17.50000000000000000, 17.50000000000000000 ) ) ;
#229 = EDGE_CURVE ( 'NONE', #158, #314, #105, .T. ) ;
#230 = CARTESIAN_POINT ( 'NONE',  ( -17.50000000000000000, 17.50000000000000000, -17.50000000000000000 ) ) ;
#231 = LINE ( 'NONE', #300, #29 ) ;
#232 = EDGE_CURVE ( 'NONE', #45, #84, #109, .T. ) ;
#233 = LINE ( 'NONE', #248, #70 ) ;
#234 = CARTESIAN_POINT ( 'NONE',  ( 0.0000000000000000000, 0.0000000000000000000, 17.50000000000000000 ) ) ;
#235 = EDGE_LOOP ( 'NONE', ( #22, #155, #107, #148 ) ) ;
#236 = ADVANCED_FACE ( 'NONE', ( #154 ), #18, .F. ) ;
#237 = APPROVAL_PERSON_ORGANIZATION ( #19, #76, #110 ) ;
#238 = AXIS2_PLACEMENT_3D ( 'NONE', #27, #125, #167 ) ;
#239 = APPROVAL_ROLE ( '' ) ;
#240 =( GEOMETRIC_REPRESENTATION_CONTEXT ( 3 ) GLOBAL_UNCERTAINTY_ASSIGNED_CONTEXT ( ( #166 ) ) GLOBAL_UNIT_ASSIGNED_CONTEXT ( ( #183, #64, #150 ) ) REPRESENTATION_CONTEXT ( 'NONE', 'WORKASPACE' ) );
#241 = CLOSED_SHELL ( 'NONE', ( #250, #108, #103, #13, #102 ) ) ;
#242 = CARTESIAN_POINT ( 'NONE',  ( -17.50000000000000000, 0.0000000000000000000, 17.50000000000000000 ) ) ;
#243 = APPROVAL_DATE_TIME ( #114, #76 ) ;
#244 = DIRECTION ( 'NONE',  ( 1.000000000000000000, 0.0000000000000000000, 0.0000000000000000000 ) ) ;
#245 = EDGE_LOOP ( 'NONE', ( #168, #201, #311 ) ) ;
#246 = PERSON_AND_ORGANIZATION_ROLE ( 'classification_officer' ) ;
#247 = LINE ( 'NONE', #82, #144 ) ;
#248 = CARTESIAN_POINT ( 'NONE',  ( 0.0000000000000000000, -17.50000000000000000, -17.50000000000000000 ) ) ;
#249 = LINE ( 'NONE', #66, #78 ) ;
#250 = ADVANCED_FACE ( 'NONE', ( #52 ), #315, .T. ) ;
#251 = EDGE_CURVE ( 'NONE', #72, #314, #187, .T. ) ;
#252 = CARTESIAN_POINT ( 'NONE',  ( -17.50000000000000000, -17.50000000000000000, 17.50000000000000000 ) ) ;
#253 = CARTESIAN_POINT ( 'NONE',  ( 0.0000000000000000000, 0.0000000000000000000, 17.50000000000000000 ) ) ;
#254 = EDGE_LOOP ( 'NONE', ( #47, #285, #61, #65 ) ) ;
#255 = APPLICATION_PROTOCOL_DEFINITION ( 'international standard', 'config_control_design', 1994, #161 ) ;
#256 = PERSON_AND_ORGANIZATION_ROLE ( 'creator' ) ;
#257 = APPROVAL_PERSON_ORGANIZATION ( #203, #95, #239 ) ;
#258 = EDGE_CURVE ( 'NONE', #26, #214, #294, .T. ) ;
#259 = CC_DESIGN_APPROVAL ( #62, ( #20 ) ) ;
#260 = CARTESIAN_POINT ( 'NONE',  ( 0.0000000000000000000, 0.0000000000000000000, -17.50000000000000000 ) ) ;
#261 = COORDINATED_UNIVERSAL_TIME_OFFSET ( 5, 0, .BEHIND. ) ;
#262 = PERSON_AND_ORGANIZATION ( #33, #267 ) ;
#263 = CARTESIAN_POINT ( 'NONE',  ( -0.0000000000000000000, 0.0000000000000000000, -17.50000000000000000 ) ) ;
#264 = ORIENTED_EDGE ( 'NONE', *, *, #232, .T. ) ;
#265 = VECTOR ( 'NONE', #215, 1000.000000000000100 ) ;
#266 = PLANE ( 'NONE',  #106 ) ;
#267 = ORGANIZATION ( 'UNSPECIFIED', 'UNSPECIFIED', '' ) ;
#268 = ADVANCED_FACE ( 'NONE', ( #116 ), #136, .T. ) ;
#269 = AXIS2_PLACEMENT_3D ( 'NONE', #77, #305, #118 ) ;
#270 = CARTESIAN_POINT ( 'NONE',  ( 17.50000000000000000, 0.0000000000000000000, 17.50000000000000000 ) ) ;
#271 = CARTESIAN_POINT ( 'NONE',  ( -17.50000000000000000, 17.50000000000000000, 17.50000000000000000 ) ) ;
#272 = PERSON_AND_ORGANIZATION_ROLE ( 'design_supplier' ) ;
#273 = CALENDAR_DATE ( 2017, 26, 4 ) ;
#274 = EDGE_CURVE ( 'NONE', #320, #288, #247, .T. ) ;
#275 = CARTESIAN_POINT ( 'NONE',  ( 17.50000000000000000, -17.50000000000000000, -17.50000000000000000 ) ) ;
#276 = PERSON_AND_ORGANIZATION ( #33, #267 ) ;
#277 = FACE_OUTER_BOUND ( 'NONE', #289, .T. ) ;
#278 = CARTESIAN_POINT ( 'NONE',  ( -17.50000000000000000, -17.50000000000000000, -17.50000000000000000 ) ) ;
#279 = EDGE_CURVE ( 'NONE', #72, #288, #233, .T. ) ;
#280 = DATE_AND_TIME ( #97, #51 ) ;
#281 = LINE ( 'NONE', #228, #60 ) ;
#282 = CARTESIAN_POINT ( 'NONE',  ( 17.50000000000000000, 17.50000000000000000, 17.50000000000000000 ) ) ;
#283 = MECHANICAL_CONTEXT ( 'NONE', #42, 'mechanical' ) ;
#284 = PERSON_AND_ORGANIZATION ( #33, #267 ) ;
#285 = ORIENTED_EDGE ( 'NONE', *, *, #68, .F. ) ;
#286 = VERTEX_POINT ( 'NONE', #39 ) ;
#287 = DIRECTION ( 'NONE',  ( -0.0000000000000000000, -0.0000000000000000000, -1.000000000000000000 ) ) ;
#288 = VERTEX_POINT ( 'NONE', #275 ) ;
#289 = EDGE_LOOP ( 'NONE', ( #163, #264, #179 ) ) ;
#290 = PRODUCT_DEFINITION_SHAPE ( 'NONE', 'NONE',  #93 ) ;
#291 = AXIS2_PLACEMENT_3D ( 'NONE', #234, #176, #99 ) ;
#292 = ORIENTED_EDGE ( 'NONE', *, *, #145, .T. ) ;
#293 = PLANE ( 'NONE',  #238 ) ;
#294 = LINE ( 'NONE', #312, #91 ) ;
#295 = ORIENTED_EDGE ( 'NONE', *, *, #274, .F. ) ;
#296 = VERTEX_POINT ( 'NONE', #225 ) ;
#297 = DIRECTION ( 'NONE',  ( 0.0000000000000000000, 1.000000000000000000, -0.0000000000000000000 ) ) ;
#298 = DESIGN_CONTEXT ( 'detailed design', #161, 'design' ) ;
#299 = LINE ( 'NONE', #174, #40 ) ;
#300 = CARTESIAN_POINT ( 'NONE',  ( 17.50000000000000000, 0.0000000000000000000, -17.50000000000000000 ) ) ;
#301 = VECTOR ( 'NONE', #308, 1000.000000000000000 ) ;
#302 = APPROVAL_DATE_TIME ( #171, #95 ) ;
#303 = COORDINATED_UNIVERSAL_TIME_OFFSET ( 5, 0, .BEHIND. ) ;
#304 = AXIS2_PLACEMENT_3D ( 'NONE', #121, #89, #191 ) ;
#305 = DIRECTION ( 'NONE',  ( -0.0000000000000000000, 0.0000000000000000000, 1.000000000000000000 ) ) ;
#306 = LINE ( 'NONE', #178, #127 ) ;
#307 = LINE ( 'NONE', #113, #152 ) ;
#308 = DIRECTION ( 'NONE',  ( 1.000000000000000000, 0.0000000000000000000, 0.0000000000000000000 ) ) ;
#309 = ADVANCED_BREP_SHAPE_REPRESENTATION ( 'Web Model 47568_48575', ( #132, #140, #304 ), #240 ) ;
#310 = ORIENTED_EDGE ( 'NONE', *, *, #227, .F. ) ;
#311 = ORIENTED_EDGE ( 'NONE', *, *, #141, .F. ) ;
#312 = CARTESIAN_POINT ( 'NONE',  ( 0.0000000000000000000, 17.50000000000000000, 17.50000000000000000 ) ) ;
#313 = CC_DESIGN_PERSON_AND_ORGANIZATION_ASSIGNMENT ( #262, #272, ( #80 ) ) ;
#314 = VERTEX_POINT ( 'NONE', #230 ) ;
#315 = PLANE ( 'NONE',  #122 ) ;
#316 = DIRECTION ( 'NONE',  ( 0.0000000000000000000, 1.000000000000000000, -0.0000000000000000000 ) ) ;
#317 = DIRECTION ( 'NONE',  ( 0.7071067811865474600, -0.7071067811865474600, 0.0000000000000000000 ) ) ;
#318 = ORIENTED_EDGE ( 'NONE', *, *, #279, .T. ) ;
#319 = ORIENTED_EDGE ( 'NONE', *, *, #229, .T. ) ;
#320 = VERTEX_POINT ( 'NONE', #200 ) ;
#321 = PLANE ( 'NONE',  #11 ) ;
ENDSEC;
END-ISO-10303-21;
