ISO-10303-21;
HEADER;
FILE_DESCRIPTION (( 'STEP AP214' ),
    '1' );
FILE_NAME ('TTN166723-E0W.STEP',
    '2018-10-15T13:56:47',
    ( '' ),
    ( '' ),
    'SwSTEP 2.0',
    'SolidWorks 2018',
    '' );
FILE_SCHEMA (( 'AUTOMOTIVE_DESIGN' ));
ENDSEC;

DATA;
#1 = ORIENTED_EDGE ( 'NONE', *, *, #65, .F. ) ;
#2 = EDGE_CURVE ( 'NONE', #33, #110, #30, .T. ) ;
#3 = ORIENTED_EDGE ( 'NONE', *, *, #96, .F. ) ;
#4 = DIRECTION ( 'NONE',  ( 1.000000000000000000, 0.0000000000000000000, 0.0000000000000000000 ) ) ;
#5 = VECTOR ( 'NONE', #8, 1000.000000000000000 ) ;
#6 = CARTESIAN_POINT ( 'NONE',  ( 0.0000000000000000000, 0.0000000000000000000, 3.000000000000000000 ) ) ;
#7 = CARTESIAN_POINT ( 'NONE',  ( 35.00000000000000711, 0.0000000000000000000, 3.000000000000000000 ) ) ;
#8 = DIRECTION ( 'NONE',  ( -0.0000000000000000000, -1.000000000000000000, -0.0000000000000000000 ) ) ;
#9 = ADVANCED_FACE ( 'NONE', ( #188 ), #152, .F. ) ;
#10 = CARTESIAN_POINT ( 'NONE',  ( 35.00000000000000711, 0.0000000000000000000, 0.0000000000000000000 ) ) ;
#11 = ORIENTED_EDGE ( 'NONE', *, *, #78, .T. ) ;
#12 = CARTESIAN_POINT ( 'NONE',  ( 35.00000000000000711, 52.00000000000000000, 3.000000000000000000 ) ) ;
#13 =( GEOMETRIC_REPRESENTATION_CONTEXT ( 3 ) GLOBAL_UNCERTAINTY_ASSIGNED_CONTEXT ( ( #51 ) ) GLOBAL_UNIT_ASSIGNED_CONTEXT ( ( #28, #104, #145 ) ) REPRESENTATION_CONTEXT ( 'NONE', 'WORKASPACE' ) );
#14 = APPLICATION_CONTEXT ( 'automotive_design' ) ;
#15 = COLOUR_RGB ( '',0.7529411764705882248, 0.7529411764705882248, 0.7529411764705882248 ) ;
#16 = ORIENTED_EDGE ( 'NONE', *, *, #62, .T. ) ;
#17 = CARTESIAN_POINT ( 'NONE',  ( 0.0000000000000000000, 0.0000000000000000000, 0.0000000000000000000 ) ) ;
#18 =( NAMED_UNIT ( * ) SI_UNIT ( $, .STERADIAN. ) SOLID_ANGLE_UNIT ( ) );
#19 = ORIENTED_EDGE ( 'NONE', *, *, #2, .T. ) ;
#20 = CARTESIAN_POINT ( 'NONE',  ( 0.0000000000000000000, 0.0000000000000000000, 3.000000000000000000 ) ) ;
#21 = ORIENTED_EDGE ( 'NONE', *, *, #179, .T. ) ;
#22 = STYLED_ITEM ( 'NONE', ( #52 ), #157 ) ;
#23 = DIRECTION ( 'NONE',  ( 0.0000000000000000000, -0.0000000000000000000, -1.000000000000000000 ) ) ;
#24 = CARTESIAN_POINT ( 'NONE',  ( 35.00000000000000711, 0.0000000000000000000, 3.000000000000000000 ) ) ;
#25 = VERTEX_POINT ( 'NONE', #174 ) ;
#26 = PLANE ( 'NONE',  #173 ) ;
#27 = PLANE ( 'NONE',  #124 ) ;
#28 =( LENGTH_UNIT ( ) NAMED_UNIT ( * ) SI_UNIT ( .MILLI., .METRE. ) );
#29 = DIRECTION ( 'NONE',  ( 0.0000000000000000000, 0.0000000000000000000, 1.000000000000000000 ) ) ;
#30 = LINE ( 'NONE', #76, #81 ) ;
#31 = VECTOR ( 'NONE', #58, 1000.000000000000000 ) ;
#32 = MECHANICAL_DESIGN_GEOMETRIC_PRESENTATION_REPRESENTATION (  '', ( #22 ), #198 ) ;
#33 = VERTEX_POINT ( 'NONE', #122 ) ;
#34 = EDGE_CURVE ( 'NONE', #155, #200, #159, .T. ) ;
#35 = ORIENTED_EDGE ( 'NONE', *, *, #96, .T. ) ;
#36 = SURFACE_STYLE_FILL_AREA ( #74 ) ;
#37 = CARTESIAN_POINT ( 'NONE',  ( 0.0000000000000000000, 52.00000000000000000, 3.000000000000000000 ) ) ;
#38 = ORIENTED_EDGE ( 'NONE', *, *, #140, .F. ) ;
#39 = LINE ( 'NONE', #12, #31 ) ;
#40 = PRESENTATION_LAYER_ASSIGNMENT (  '', '', ( #154 ) ) ;
#41 = FILL_AREA_STYLE ('',( #151 ) ) ;
#42 = PRODUCT_CONTEXT ( 'NONE', #170, 'mechanical' ) ;
#43 = ORIENTED_EDGE ( 'NONE', *, *, #2, .F. ) ;
#44 =( LENGTH_UNIT ( ) NAMED_UNIT ( * ) SI_UNIT ( .MILLI., .METRE. ) );
#45 = DIRECTION ( 'NONE',  ( -1.000000000000000000, -0.0000000000000000000, -0.0000000000000000000 ) ) ;
#46 = EDGE_LOOP ( 'NONE', ( #16, #193, #71, #133 ) ) ;
#47 = DIRECTION ( 'NONE',  ( -1.000000000000000000, 0.0000000000000000000, -0.0000000000000000000 ) ) ;
#48 = FACE_OUTER_BOUND ( 'NONE', #91, .T. ) ;
#49 = VECTOR ( 'NONE', #112, 1000.000000000000000 ) ;
#50 = ORIENTED_EDGE ( 'NONE', *, *, #34, .F. ) ;
#51 = UNCERTAINTY_MEASURE_WITH_UNIT (LENGTH_MEASURE( 1.000000000000000082E-05 ), #28, 'distance_accuracy_value', 'NONE');
#52 = PRESENTATION_STYLE_ASSIGNMENT (( #86 ) ) ;
#53 = VECTOR ( 'NONE', #164, 1000.000000000000000 ) ;
#54 = CARTESIAN_POINT ( 'NONE',  ( 0.0000000000000000000, 0.0000000000000000000, 0.0000000000000000000 ) ) ;
#55 = EDGE_CURVE ( 'NONE', #165, #192, #106, .T. ) ;
#56 = LINE ( 'NONE', #90, #172 ) ;
#57 = DIRECTION ( 'NONE',  ( 0.0000000000000000000, -0.0000000000000000000, 1.000000000000000000 ) ) ;
#58 = DIRECTION ( 'NONE',  ( -0.0000000000000000000, -0.0000000000000000000, -1.000000000000000000 ) ) ;
#59 = FACE_OUTER_BOUND ( 'NONE', #84, .T. ) ;
#60 = PRODUCT ( 'TTN166723-E0W', 'TTN166723-E0W', '', ( #42 ) ) ;
#61 = VECTOR ( 'NONE', #101, 1000.000000000000000 ) ;
#62 = EDGE_CURVE ( 'NONE', #25, #68, #137, .T. ) ;
#63 = ORIENTED_EDGE ( 'NONE', *, *, #82, .T. ) ;
#64 = CARTESIAN_POINT ( 'NONE',  ( 0.0000000000000000000, 0.0000000000000000000, 0.0000000000000000000 ) ) ;
#65 = EDGE_CURVE ( 'NONE', #165, #25, #56, .T. ) ;
#66 = ADVANCED_FACE ( 'NONE', ( #123 ), #103, .F. ) ;
#67 = DIRECTION ( 'NONE',  ( 0.0000000000000000000, 0.0000000000000000000, -1.000000000000000000 ) ) ;
#68 = VERTEX_POINT ( 'NONE', #10 ) ;
#69 = PLANE ( 'NONE',  #143 ) ;
#70 = DIRECTION ( 'NONE',  ( 0.0000000000000000000, 1.000000000000000000, 0.0000000000000000000 ) ) ;
#71 = ORIENTED_EDGE ( 'NONE', *, *, #55, .F. ) ;
#72 = MECHANICAL_DESIGN_GEOMETRIC_PRESENTATION_REPRESENTATION (  '', ( #154 ), #13 ) ;
#73 = ADVANCED_FACE ( 'NONE', ( #95 ), #27, .F. ) ;
#74 = FILL_AREA_STYLE ('',( #148 ) ) ;
#75 = ORIENTED_EDGE ( 'NONE', *, *, #113, .T. ) ;
#76 = CARTESIAN_POINT ( 'NONE',  ( 0.0000000000000000000, 52.00000000000000000, 3.000000000000000000 ) ) ;
#77 = LINE ( 'NONE', #163, #49 ) ;
#78 = EDGE_CURVE ( 'NONE', #192, #33, #125, .T. ) ;
#79 = ORIENTED_EDGE ( 'NONE', *, *, #62, .F. ) ;
#80 = ORIENTED_EDGE ( 'NONE', *, *, #78, .F. ) ;
#81 = VECTOR ( 'NONE', #45, 1000.000000000000000 ) ;
#82 = EDGE_CURVE ( 'NONE', #200, #25, #158, .T. ) ;
#83 = CARTESIAN_POINT ( 'NONE',  ( 0.0000000000000000000, 0.0000000000000000000, 3.000000000000000000 ) ) ;
#84 = EDGE_LOOP ( 'NONE', ( #75, #38, #80, #175 ) ) ;
#85 = DIRECTION ( 'NONE',  ( 0.0000000000000000000, 0.0000000000000000000, -1.000000000000000000 ) ) ;
#86 = SURFACE_STYLE_USAGE ( .BOTH. , #186 ) ;
#87 = PRESENTATION_STYLE_ASSIGNMENT (( #121 ) ) ;
#88 = LINE ( 'NONE', #24, #169 ) ;
#89 = PRODUCT_DEFINITION_FORMATION_WITH_SPECIFIED_SOURCE ( 'ANY', '', #60, .NOT_KNOWN. ) ;
#90 = CARTESIAN_POINT ( 'NONE',  ( 0.0000000000000000000, 0.0000000000000000000, 3.000000000000000000 ) ) ;
#91 = EDGE_LOOP ( 'NONE', ( #107, #50, #136, #79 ) ) ;
#92 = AXIS2_PLACEMENT_3D ( 'NONE', #17, #29, #168 ) ;
#93 = PRODUCT_RELATED_PRODUCT_CATEGORY ( 'part', '', ( #60 ) ) ;
#94 = COLOUR_RGB ( '',0.7529411764705882248, 0.7529411764705882248, 0.7529411764705882248 ) ;
#95 = FACE_OUTER_BOUND ( 'NONE', #46, .T. ) ;
#96 = EDGE_CURVE ( 'NONE', #110, #165, #116, .T. ) ;
#97 = DIRECTION ( 'NONE',  ( 1.000000000000000000, 0.0000000000000000000, 0.0000000000000000000 ) ) ;
#98 = AXIS2_PLACEMENT_3D ( 'NONE', #20, #171, #47 ) ;
#99 = ADVANCED_FACE ( 'NONE', ( #196 ), #69, .F. ) ;
#100 = CARTESIAN_POINT ( 'NONE',  ( 0.0000000000000000000, 52.00000000000000000, 3.000000000000000000 ) ) ;
#101 = DIRECTION ( 'NONE',  ( 0.0000000000000000000, 1.000000000000000000, 0.0000000000000000000 ) ) ;
#102 = EDGE_LOOP ( 'NONE', ( #130, #187, #43, #109 ) ) ;
#103 = PLANE ( 'NONE',  #108 ) ;
#104 =( NAMED_UNIT ( * ) PLANE_ANGLE_UNIT ( ) SI_UNIT ( $, .RADIAN. ) );
#105 = UNCERTAINTY_MEASURE_WITH_UNIT (LENGTH_MEASURE( 1.000000000000000082E-05 ), #44, 'distance_accuracy_value', 'NONE');
#106 = LINE ( 'NONE', #138, #120 ) ;
#107 = ORIENTED_EDGE ( 'NONE', *, *, #82, .F. ) ;
#108 = AXIS2_PLACEMENT_3D ( 'NONE', #190, #97, #67 ) ;
#109 = ORIENTED_EDGE ( 'NONE', *, *, #140, .T. ) ;
#110 = VERTEX_POINT ( 'NONE', #128 ) ;
#111 = DIRECTION ( 'NONE',  ( -0.0000000000000000000, -0.0000000000000000000, -1.000000000000000000 ) ) ;
#112 = DIRECTION ( 'NONE',  ( 0.0000000000000000000, 1.000000000000000000, 0.0000000000000000000 ) ) ;
#113 = EDGE_CURVE ( 'NONE', #68, #155, #77, .T. ) ;
#114 = CARTESIAN_POINT ( 'NONE',  ( 35.00000000000000711, 52.00000000000000000, 0.0000000000000000000 ) ) ;
#115 = DIRECTION ( 'NONE',  ( -0.0000000000000000000, -0.0000000000000000000, -1.000000000000000000 ) ) ;
#116 = LINE ( 'NONE', #166, #53 ) ;
#117 = APPLICATION_PROTOCOL_DEFINITION ( 'draft international standard', 'automotive_design', 1998, #170 ) ;
#118 = SURFACE_SIDE_STYLE ('',( #191 ) ) ;
#119 = EDGE_CURVE ( 'NONE', #192, #68, #88, .T. ) ;
#120 = VECTOR ( 'NONE', #4, 1000.000000000000000 ) ;
#121 = SURFACE_STYLE_USAGE ( .BOTH. , #118 ) ;
#122 = CARTESIAN_POINT ( 'NONE',  ( 35.00000000000000711, 52.00000000000000000, 3.000000000000000000 ) ) ;
#123 = FACE_OUTER_BOUND ( 'NONE', #149, .T. ) ;
#124 = AXIS2_PLACEMENT_3D ( 'NONE', #83, #70, #57 ) ;
#125 = LINE ( 'NONE', #182, #61 ) ;
#126 = CARTESIAN_POINT ( 'NONE',  ( 0.0000000000000000000, 52.00000000000000000, 0.0000000000000000000 ) ) ;
#127 = DIRECTION ( 'NONE',  ( -0.0000000000000000000, -0.0000000000000000000, -1.000000000000000000 ) ) ;
#128 = CARTESIAN_POINT ( 'NONE',  ( 0.0000000000000000000, 52.00000000000000000, 3.000000000000000000 ) ) ;
#129 = VECTOR ( 'NONE', #115, 1000.000000000000000 ) ;
#130 = ORIENTED_EDGE ( 'NONE', *, *, #34, .T. ) ;
#131 = DIRECTION ( 'NONE',  ( 0.0000000000000000000, -1.000000000000000000, 0.0000000000000000000 ) ) ;
#132 =( LENGTH_UNIT ( ) NAMED_UNIT ( * ) SI_UNIT ( .MILLI., .METRE. ) );
#133 = ORIENTED_EDGE ( 'NONE', *, *, #65, .T. ) ;
#134 = PRODUCT_DEFINITION_CONTEXT ( 'detailed design', #14, 'design' ) ;
#135 = SHAPE_DEFINITION_REPRESENTATION ( #139, #157 ) ;
#136 = ORIENTED_EDGE ( 'NONE', *, *, #113, .F. ) ;
#137 = LINE ( 'NONE', #64, #202 ) ;
#138 = CARTESIAN_POINT ( 'NONE',  ( 0.0000000000000000000, 0.0000000000000000000, 3.000000000000000000 ) ) ;
#139 = PRODUCT_DEFINITION_SHAPE ( 'NONE', 'NONE',  #177 ) ;
#140 = EDGE_CURVE ( 'NONE', #33, #155, #39, .T. ) ;
#141 = ORIENTED_EDGE ( 'NONE', *, *, #55, .T. ) ;
#142 = CARTESIAN_POINT ( 'NONE',  ( 35.00000000000000711, 0.0000000000000000000, 3.000000000000000000 ) ) ;
#143 = AXIS2_PLACEMENT_3D ( 'NONE', #100, #131, #23 ) ;
#144 = PLANE ( 'NONE',  #189 ) ;
#145 =( NAMED_UNIT ( * ) SI_UNIT ( $, .STERADIAN. ) SOLID_ANGLE_UNIT ( ) );
#146 =( NAMED_UNIT ( * ) PLANE_ANGLE_UNIT ( ) SI_UNIT ( $, .RADIAN. ) );
#147 =( GEOMETRIC_REPRESENTATION_CONTEXT ( 3 ) GLOBAL_UNCERTAINTY_ASSIGNED_CONTEXT ( ( #105 ) ) GLOBAL_UNIT_ASSIGNED_CONTEXT ( ( #44, #146, #199 ) ) REPRESENTATION_CONTEXT ( 'NONE', 'WORKASPACE' ) );
#148 = FILL_AREA_STYLE_COLOUR ( '', #15 ) ;
#149 = EDGE_LOOP ( 'NONE', ( #63, #1, #3, #21 ) ) ;
#150 = CARTESIAN_POINT ( 'NONE',  ( 0.0000000000000000000, 52.00000000000000000, 0.0000000000000000000 ) ) ;
#151 = FILL_AREA_STYLE_COLOUR ( '', #94 ) ;
#152 = PLANE ( 'NONE',  #98 ) ;
#153 = CLOSED_SHELL ( 'NONE', ( #66, #73, #180, #99, #9, #162 ) ) ;
#154 = STYLED_ITEM ( 'NONE', ( #87 ), #195 ) ;
#155 = VERTEX_POINT ( 'NONE', #114 ) ;
#156 = DIRECTION ( 'NONE',  ( 1.000000000000000000, 0.0000000000000000000, 0.0000000000000000000 ) ) ;
#157 = ADVANCED_BREP_SHAPE_REPRESENTATION ( 'TTN166723-E0W', ( #195, #92 ), #147 ) ;
#158 = LINE ( 'NONE', #54, #5 ) ;
#159 = LINE ( 'NONE', #150, #178 ) ;
#160 = DIRECTION ( 'NONE',  ( -1.000000000000000000, 0.0000000000000000000, 0.0000000000000000000 ) ) ;
#161 = PRESENTATION_LAYER_ASSIGNMENT (  '', '', ( #22 ) ) ;
#162 = ADVANCED_FACE ( 'NONE', ( #48 ), #26, .T. ) ;
#163 = CARTESIAN_POINT ( 'NONE',  ( 35.00000000000000711, 0.0000000000000000000, 0.0000000000000000000 ) ) ;
#164 = DIRECTION ( 'NONE',  ( -0.0000000000000000000, -1.000000000000000000, -0.0000000000000000000 ) ) ;
#165 = VERTEX_POINT ( 'NONE', #6 ) ;
#166 = CARTESIAN_POINT ( 'NONE',  ( 0.0000000000000000000, 0.0000000000000000000, 3.000000000000000000 ) ) ;
#167 = APPLICATION_PROTOCOL_DEFINITION ( 'draft international standard', 'automotive_design', 1998, #14 ) ;
#168 = DIRECTION ( 'NONE',  ( 1.000000000000000000, 0.0000000000000000000, 0.0000000000000000000 ) ) ;
#169 = VECTOR ( 'NONE', #127, 1000.000000000000000 ) ;
#170 = APPLICATION_CONTEXT ( 'automotive_design' ) ;
#171 = DIRECTION ( 'NONE',  ( 0.0000000000000000000, 0.0000000000000000000, -1.000000000000000000 ) ) ;
#172 = VECTOR ( 'NONE', #111, 1000.000000000000000 ) ;
#173 = AXIS2_PLACEMENT_3D ( 'NONE', #185, #85, #194 ) ;
#174 = CARTESIAN_POINT ( 'NONE',  ( 0.0000000000000000000, 0.0000000000000000000, 0.0000000000000000000 ) ) ;
#175 = ORIENTED_EDGE ( 'NONE', *, *, #119, .T. ) ;
#176 = UNCERTAINTY_MEASURE_WITH_UNIT (LENGTH_MEASURE( 1.000000000000000082E-05 ), #132, 'distance_accuracy_value', 'NONE');
#177 = PRODUCT_DEFINITION ( 'UNKNOWN', '', #89, #134 ) ;
#178 = VECTOR ( 'NONE', #201, 1000.000000000000000 ) ;
#179 = EDGE_CURVE ( 'NONE', #110, #200, #183, .T. ) ;
#180 = ADVANCED_FACE ( 'NONE', ( #59 ), #144, .F. ) ;
#181 = DIRECTION ( 'NONE',  ( 0.0000000000000000000, 0.0000000000000000000, 1.000000000000000000 ) ) ;
#182 = CARTESIAN_POINT ( 'NONE',  ( 35.00000000000000711, 0.0000000000000000000, 3.000000000000000000 ) ) ;
#183 = LINE ( 'NONE', #37, #129 ) ;
#184 = EDGE_LOOP ( 'NONE', ( #35, #141, #11, #19 ) ) ;
#185 = CARTESIAN_POINT ( 'NONE',  ( 0.0000000000000000000, 0.0000000000000000000, 0.0000000000000000000 ) ) ;
#186 = SURFACE_SIDE_STYLE ('',( #36 ) ) ;
#187 = ORIENTED_EDGE ( 'NONE', *, *, #179, .F. ) ;
#188 = FACE_OUTER_BOUND ( 'NONE', #184, .T. ) ;
#189 = AXIS2_PLACEMENT_3D ( 'NONE', #7, #160, #181 ) ;
#190 = CARTESIAN_POINT ( 'NONE',  ( 0.0000000000000000000, 0.0000000000000000000, 3.000000000000000000 ) ) ;
#191 = SURFACE_STYLE_FILL_AREA ( #41 ) ;
#192 = VERTEX_POINT ( 'NONE', #142 ) ;
#193 = ORIENTED_EDGE ( 'NONE', *, *, #119, .F. ) ;
#194 = DIRECTION ( 'NONE',  ( -1.000000000000000000, 0.0000000000000000000, -0.0000000000000000000 ) ) ;
#195 = MANIFOLD_SOLID_BREP ( 'Boss-Extrude1', #153 ) ;
#196 = FACE_OUTER_BOUND ( 'NONE', #102, .T. ) ;
#197 =( NAMED_UNIT ( * ) PLANE_ANGLE_UNIT ( ) SI_UNIT ( $, .RADIAN. ) );
#198 =( GEOMETRIC_REPRESENTATION_CONTEXT ( 3 ) GLOBAL_UNCERTAINTY_ASSIGNED_CONTEXT ( ( #176 ) ) GLOBAL_UNIT_ASSIGNED_CONTEXT ( ( #132, #197, #18 ) ) REPRESENTATION_CONTEXT ( 'NONE', 'WORKASPACE' ) );
#199 =( NAMED_UNIT ( * ) SI_UNIT ( $, .STERADIAN. ) SOLID_ANGLE_UNIT ( ) );
#200 = VERTEX_POINT ( 'NONE', #126 ) ;
#201 = DIRECTION ( 'NONE',  ( -1.000000000000000000, -0.0000000000000000000, -0.0000000000000000000 ) ) ;
#202 = VECTOR ( 'NONE', #156, 1000.000000000000000 ) ;
ENDSEC;
END-ISO-10303-21;
