ISO-10303-21;
HEADER;
FILE_DESCRIPTION (( 'STEP AP203' ),
    '1' );
FILE_NAME ('Web Model 89567.STEP',
    '2017-02-01T16:31:06',
    ( '' ),
    ( '' ),
    'SwSTEP 2.0',
    'SolidWorks 2016',
    '' );
FILE_SCHEMA (( 'CONFIG_CONTROL_DESIGN' ));
ENDSEC;

DATA;
#1 = CC_DESIGN_SECURITY_CLASSIFICATION ( #82, ( #15 ) ) ;
#2 = CARTESIAN_POINT ( 'NONE',  ( 4.000000000000000000, 0.0000000000000000000, 20.00000000000000000 ) ) ;
#3 = PERSON_AND_ORGANIZATION ( #171, #125 ) ;
#4 = DIRECTION ( 'NONE',  ( 1.000000000000000000, 0.0000000000000000000, 0.0000000000000000000 ) ) ;
#5 = AXIS2_PLACEMENT_3D ( 'NONE', #151, #73, #156 ) ;
#6 = CARTESIAN_POINT ( 'NONE',  ( 4.000000000000000000, 0.0000000000000000000, 0.0000000000000000000 ) ) ;
#7 = CALENDAR_DATE ( 2017, 1, 2 ) ;
#8 = APPROVAL ( #113, 'UNSPECIFIED' ) ;
#9 = PERSON_AND_ORGANIZATION_ROLE ( 'design_owner' ) ;
#10 = PERSON_AND_ORGANIZATION_ROLE ( 'design_supplier' ) ;
#11 = CLOSED_SHELL ( 'NONE', ( #120, #16, #19, #14 ) ) ;
#12 = DATE_AND_TIME ( #121, #155 ) ;
#13 = LINE ( 'NONE', #112, #98 ) ;
#14 = ADVANCED_FACE ( 'NONE', ( #83 ), #124, .F. ) ;
#15 = PRODUCT_DEFINITION_FORMATION_WITH_SPECIFIED_SOURCE ( 'ANY', '', #100, .NOT_KNOWN. ) ;
#16 = ADVANCED_FACE ( 'NONE', ( #65 ), #159, .T. ) ;
#17 = PRODUCT_DEFINITION_SHAPE ( 'NONE', 'NONE',  #175 ) ;
#18 = CARTESIAN_POINT ( 'NONE',  ( 0.0000000000000000000, 0.0000000000000000000, 0.0000000000000000000 ) ) ;
#19 = ADVANCED_FACE ( 'NONE', ( #166 ), #167, .T. ) ;
#20 = LINE ( 'NONE', #154, #90 ) ;
#21 = DIRECTION ( 'NONE',  ( 0.0000000000000000000, 0.0000000000000000000, -1.000000000000000000 ) ) ;
#22 = DIRECTION ( 'NONE',  ( 1.000000000000000000, 0.0000000000000000000, 0.0000000000000000000 ) ) ;
#23 = EDGE_CURVE ( 'NONE', #80, #85, #84, .T. ) ;
#24 = APPLICATION_CONTEXT ( 'configuration controlled 3d designs of mechanical parts and assemblies' ) ;
#25 = SECURITY_CLASSIFICATION_LEVEL ( 'unclassified' ) ;
#26 = APPLICATION_PROTOCOL_DEFINITION ( 'international standard', 'config_control_design', 1994, #24 ) ;
#27 = APPROVAL_DATE_TIME ( #39, #115 ) ;
#28 = ORIENTED_EDGE ( 'NONE', *, *, #108, .F. ) ;
#29 = LOCAL_TIME ( 11, 31, 6.000000000000000000, #66 ) ;
#30 = ORIENTED_EDGE ( 'NONE', *, *, #108, .T. ) ;
#31 = EDGE_CURVE ( 'NONE', #80, #42, #20, .T. ) ;
#32 = CARTESIAN_POINT ( 'NONE',  ( 0.0000000000000000000, 0.0000000000000000000, 20.00000000000000000 ) ) ;
#33 = DIRECTION ( 'NONE',  ( 0.0000000000000000000, 0.0000000000000000000, -1.000000000000000000 ) ) ;
#34 = DATE_AND_TIME ( #7, #29 ) ;
#35 = APPROVAL_ROLE ( '' ) ;
#36 = DIRECTION ( 'NONE',  ( 1.000000000000000000, 0.0000000000000000000, 0.0000000000000000000 ) ) ;
#37 = APPLICATION_PROTOCOL_DEFINITION ( 'international standard', 'config_control_design', 1994, #47 ) ;
#38 = EDGE_CURVE ( 'NONE', #42, #57, #103, .T. ) ;
#39 = DATE_AND_TIME ( #78, #109 ) ;
#40 = APPROVAL_DATE_TIME ( #58, #8 ) ;
#41 = CYLINDRICAL_SURFACE ( 'NONE', #5, 20.00000000000000000 ) ;
#42 = VERTEX_POINT ( 'NONE', #110 ) ;
#43 = CC_DESIGN_PERSON_AND_ORGANIZATION_ASSIGNMENT ( #68, #49, ( #15 ) ) ;
#44 = CARTESIAN_POINT ( 'NONE',  ( 4.000000000000000000, 0.0000000000000000000, 0.0000000000000000000 ) ) ;
#45 = DIRECTION ( 'NONE',  ( -1.000000000000000000, -0.0000000000000000000, -0.0000000000000000000 ) ) ;
#46 = DIRECTION ( 'NONE',  ( 1.000000000000000000, 0.0000000000000000000, 0.0000000000000000000 ) ) ;
#47 = APPLICATION_CONTEXT ( 'configuration controlled 3d designs of mechanical parts and assemblies' ) ;
#48 = ADVANCED_BREP_SHAPE_REPRESENTATION ( 'Web Model 89567', ( #134, #136 ), #144 ) ;
#49 = PERSON_AND_ORGANIZATION_ROLE ( 'creator' ) ;
#50 = PERSON_AND_ORGANIZATION_ROLE ( 'creator' ) ;
#51 = DIRECTION ( 'NONE',  ( 0.0000000000000000000, 0.0000000000000000000, -1.000000000000000000 ) ) ;
#52 = PERSON_AND_ORGANIZATION ( #171, #125 ) ;
#53 = CC_DESIGN_DATE_AND_TIME_ASSIGNMENT ( #12, #170, ( #175 ) ) ;
#54 = ORIENTED_EDGE ( 'NONE', *, *, #153, .T. ) ;
#55 = CC_DESIGN_PERSON_AND_ORGANIZATION_ASSIGNMENT ( #3, #10, ( #15 ) ) ;
#56 = EDGE_LOOP ( 'NONE', ( #106, #28, #131, #54 ) ) ;
#57 = VERTEX_POINT ( 'NONE', #32 ) ;
#58 = DATE_AND_TIME ( #88, #117 ) ;
#59 = EDGE_LOOP ( 'NONE', ( #30, #96 ) ) ;
#60 = CC_DESIGN_DATE_AND_TIME_ASSIGNMENT ( #64, #128, ( #82 ) ) ;
#61 = ORIENTED_EDGE ( 'NONE', *, *, #38, .F. ) ;
#62 = CC_DESIGN_APPROVAL ( #8, ( #175 ) ) ;
#63 = APPROVAL_STATUS ( 'not_yet_approved' ) ;
#64 = DATE_AND_TIME ( #133, #172 ) ;
#65 = FACE_OUTER_BOUND ( 'NONE', #56, .T. ) ;
#66 = COORDINATED_UNIVERSAL_TIME_OFFSET ( 5, 0, .BEHIND. ) ;
#67 = EDGE_LOOP ( 'NONE', ( #118, #61 ) ) ;
#68 = PERSON_AND_ORGANIZATION ( #171, #125 ) ;
#69 = APPROVAL ( #143, 'UNSPECIFIED' ) ;
#70 = DIRECTION ( 'NONE',  ( 0.0000000000000000000, 0.0000000000000000000, -1.000000000000000000 ) ) ;
#71 = EDGE_CURVE ( 'NONE', #85, #57, #13, .T. ) ;
#72 = COORDINATED_UNIVERSAL_TIME_OFFSET ( 5, 0, .BEHIND. ) ;
#73 = DIRECTION ( 'NONE',  ( -1.000000000000000000, -0.0000000000000000000, -0.0000000000000000000 ) ) ;
#74 = DIRECTION ( 'NONE',  ( -1.000000000000000000, -0.0000000000000000000, -0.0000000000000000000 ) ) ;
#75 = DIRECTION ( 'NONE',  ( 0.0000000000000000000, 0.0000000000000000000, -1.000000000000000000 ) ) ;
#76 = SHAPE_DEFINITION_REPRESENTATION ( #17, #48 ) ;
#77 =( LENGTH_UNIT ( ) NAMED_UNIT ( * ) SI_UNIT ( .MILLI., .METRE. ) );
#78 = CALENDAR_DATE ( 2017, 1, 2 ) ;
#79 = PERSON_AND_ORGANIZATION ( #171, #125 ) ;
#80 = VERTEX_POINT ( 'NONE', #86 ) ;
#81 = APPROVAL_PERSON_ORGANIZATION ( #92, #115, #168 ) ;
#82 = SECURITY_CLASSIFICATION ( '', '', #25 ) ;
#83 = FACE_OUTER_BOUND ( 'NONE', #67, .T. ) ;
#84 = CIRCLE ( 'NONE', #97, 20.00000000000000000 ) ;
#85 = VERTEX_POINT ( 'NONE', #2 ) ;
#86 = CARTESIAN_POINT ( 'NONE',  ( 4.000000000000000000, 2.449293598294706500E-015, -20.00000000000000000 ) ) ;
#87 = CARTESIAN_POINT ( 'NONE',  ( 4.000000000000000000, 0.0000000000000000000, 0.0000000000000000000 ) ) ;
#88 = CALENDAR_DATE ( 2017, 1, 2 ) ;
#89 = DIRECTION ( 'NONE',  ( -1.000000000000000000, -0.0000000000000000000, -0.0000000000000000000 ) ) ;
#90 = VECTOR ( 'NONE', #45, 1000.000000000000000 ) ;
#91 = PRODUCT_RELATED_PRODUCT_CATEGORY ( 'detail', '', ( #100 ) ) ;
#92 = PERSON_AND_ORGANIZATION ( #171, #125 ) ;
#93 = AXIS2_PLACEMENT_3D ( 'NONE', #152, #139, #70 ) ;
#94 = DESIGN_CONTEXT ( 'detailed design', #24, 'design' ) ;
#95 = COORDINATED_UNIVERSAL_TIME_OFFSET ( 5, 0, .BEHIND. ) ;
#96 = ORIENTED_EDGE ( 'NONE', *, *, #23, .T. ) ;
#97 = AXIS2_PLACEMENT_3D ( 'NONE', #44, #165, #21 ) ;
#98 = VECTOR ( 'NONE', #74, 1000.000000000000000 ) ;
#99 = DIRECTION ( 'NONE',  ( 0.0000000000000000000, 0.0000000000000000000, -1.000000000000000000 ) ) ;
#100 = PRODUCT ( 'Web Model 89567', 'Web Model 89567', '', ( #104 ) ) ;
#101 = CARTESIAN_POINT ( 'NONE',  ( 4.000000000000000000, 0.0000000000000000000, 0.0000000000000000000 ) ) ;
#102 = APPROVAL_ROLE ( '' ) ;
#103 = CIRCLE ( 'NONE', #93, 20.00000000000000000 ) ;
#104 = MECHANICAL_CONTEXT ( 'NONE', #47, 'mechanical' ) ;
#105 = CC_DESIGN_PERSON_AND_ORGANIZATION_ASSIGNMENT ( #107, #142, ( #82 ) ) ;
#106 = ORIENTED_EDGE ( 'NONE', *, *, #31, .F. ) ;
#107 = PERSON_AND_ORGANIZATION ( #171, #125 ) ;
#108 = EDGE_CURVE ( 'NONE', #85, #80, #145, .T. ) ;
#109 = LOCAL_TIME ( 11, 31, 6.000000000000000000, #147 ) ;
#110 = CARTESIAN_POINT ( 'NONE',  ( 0.0000000000000000000, 2.449293598294706500E-015, -20.00000000000000000 ) ) ;
#111 = DIRECTION ( 'NONE',  ( 0.0000000000000000000, 0.0000000000000000000, 1.000000000000000000 ) ) ;
#112 = CARTESIAN_POINT ( 'NONE',  ( 4.000000000000000000, 0.0000000000000000000, 20.00000000000000000 ) ) ;
#113 = APPROVAL_STATUS ( 'not_yet_approved' ) ;
#114 = ORIENTED_EDGE ( 'NONE', *, *, #31, .T. ) ;
#115 = APPROVAL ( #63, 'UNSPECIFIED' ) ;
#116 = DIRECTION ( 'NONE',  ( 1.000000000000000000, 0.0000000000000000000, 0.0000000000000000000 ) ) ;
#117 = LOCAL_TIME ( 11, 31, 6.000000000000000000, #95 ) ;
#118 = ORIENTED_EDGE ( 'NONE', *, *, #153, .F. ) ;
#119 = AXIS2_PLACEMENT_3D ( 'NONE', #169, #116, #51 ) ;
#120 = ADVANCED_FACE ( 'NONE', ( #140 ), #41, .T. ) ;
#121 = CALENDAR_DATE ( 2017, 1, 2 ) ;
#122 = ORIENTED_EDGE ( 'NONE', *, *, #38, .T. ) ;
#123 = DIRECTION ( 'NONE',  ( 0.0000000000000000000, 0.0000000000000000000, 1.000000000000000000 ) ) ;
#124 = PLANE ( 'NONE',  #149 ) ;
#125 = ORGANIZATION ( 'UNSPECIFIED', 'UNSPECIFIED', '' ) ;
#126 = AXIS2_PLACEMENT_3D ( 'NONE', #101, #89, #123 ) ;
#127 = EDGE_LOOP ( 'NONE', ( #150, #114, #122, #146 ) ) ;
#128 = DATE_TIME_ROLE ( 'classification_date' ) ;
#129 = APPROVAL_PERSON_ORGANIZATION ( #79, #8, #35 ) ;
#130 = CC_DESIGN_APPROVAL ( #115, ( #15 ) ) ;
#131 = ORIENTED_EDGE ( 'NONE', *, *, #71, .T. ) ;
#132 = UNCERTAINTY_MEASURE_WITH_UNIT (LENGTH_MEASURE( 1.000000000000000100E-005 ), #77, 'distance_accuracy_value', 'NONE');
#133 = CALENDAR_DATE ( 2017, 1, 2 ) ;
#134 = MANIFOLD_SOLID_BREP ( 'Extrude1', #11 ) ;
#135 = CIRCLE ( 'NONE', #119, 20.00000000000000000 ) ;
#136 = AXIS2_PLACEMENT_3D ( 'NONE', #18, #111, #36 ) ;
#137 = CARTESIAN_POINT ( 'NONE',  ( 0.0000000000000000000, 0.0000000000000000000, 0.0000000000000000000 ) ) ;
#138 = AXIS2_PLACEMENT_3D ( 'NONE', #6, #46, #75 ) ;
#139 = DIRECTION ( 'NONE',  ( 1.000000000000000000, 0.0000000000000000000, 0.0000000000000000000 ) ) ;
#140 = FACE_OUTER_BOUND ( 'NONE', #127, .T. ) ;
#141 =( NAMED_UNIT ( * ) SI_UNIT ( $, .STERADIAN. ) SOLID_ANGLE_UNIT ( ) );
#142 = PERSON_AND_ORGANIZATION_ROLE ( 'classification_officer' ) ;
#143 = APPROVAL_STATUS ( 'not_yet_approved' ) ;
#144 =( GEOMETRIC_REPRESENTATION_CONTEXT ( 3 ) GLOBAL_UNCERTAINTY_ASSIGNED_CONTEXT ( ( #132 ) ) GLOBAL_UNIT_ASSIGNED_CONTEXT ( ( #77, #158, #141 ) ) REPRESENTATION_CONTEXT ( 'NONE', 'WORKASPACE' ) );
#145 = CIRCLE ( 'NONE', #164, 20.00000000000000000 ) ;
#146 = ORIENTED_EDGE ( 'NONE', *, *, #71, .F. ) ;
#147 = COORDINATED_UNIVERSAL_TIME_OFFSET ( 5, 0, .BEHIND. ) ;
#148 = PERSON_AND_ORGANIZATION ( #171, #125 ) ;
#149 = AXIS2_PLACEMENT_3D ( 'NONE', #137, #22, #33 ) ;
#150 = ORIENTED_EDGE ( 'NONE', *, *, #23, .F. ) ;
#151 = CARTESIAN_POINT ( 'NONE',  ( 4.000000000000000000, 0.0000000000000000000, 0.0000000000000000000 ) ) ;
#152 = CARTESIAN_POINT ( 'NONE',  ( 0.0000000000000000000, 0.0000000000000000000, 0.0000000000000000000 ) ) ;
#153 = EDGE_CURVE ( 'NONE', #57, #42, #135, .T. ) ;
#154 = CARTESIAN_POINT ( 'NONE',  ( 4.000000000000000000, 2.449293598294706500E-015, -20.00000000000000000 ) ) ;
#155 = LOCAL_TIME ( 11, 31, 6.000000000000000000, #162 ) ;
#156 = DIRECTION ( 'NONE',  ( 0.0000000000000000000, 0.0000000000000000000, 1.000000000000000000 ) ) ;
#157 = CC_DESIGN_PERSON_AND_ORGANIZATION_ASSIGNMENT ( #148, #9, ( #100 ) ) ;
#158 =( NAMED_UNIT ( * ) PLANE_ANGLE_UNIT ( ) SI_UNIT ( $, .RADIAN. ) );
#159 = CYLINDRICAL_SURFACE ( 'NONE', #126, 20.00000000000000000 ) ;
#160 = CC_DESIGN_APPROVAL ( #69, ( #82 ) ) ;
#161 = APPROVAL_PERSON_ORGANIZATION ( #163, #69, #102 ) ;
#162 = COORDINATED_UNIVERSAL_TIME_OFFSET ( 5, 0, .BEHIND. ) ;
#163 = PERSON_AND_ORGANIZATION ( #171, #125 ) ;
#164 = AXIS2_PLACEMENT_3D ( 'NONE', #87, #4, #99 ) ;
#165 = DIRECTION ( 'NONE',  ( 1.000000000000000000, 0.0000000000000000000, 0.0000000000000000000 ) ) ;
#166 = FACE_OUTER_BOUND ( 'NONE', #59, .T. ) ;
#167 = PLANE ( 'NONE',  #138 ) ;
#168 = APPROVAL_ROLE ( '' ) ;
#169 = CARTESIAN_POINT ( 'NONE',  ( 0.0000000000000000000, 0.0000000000000000000, 0.0000000000000000000 ) ) ;
#170 = DATE_TIME_ROLE ( 'creation_date' ) ;
#171 = PERSON ( 'UNSPECIFIED', 'UNSPECIFIED', 'UNSPECIFIED', ('UNSPECIFIED'), ('UNSPECIFIED'), ('UNSPECIFIED') ) ;
#172 = LOCAL_TIME ( 11, 31, 6.000000000000000000, #72 ) ;
#173 = CC_DESIGN_PERSON_AND_ORGANIZATION_ASSIGNMENT ( #52, #50, ( #175 ) ) ;
#174 = APPROVAL_DATE_TIME ( #34, #69 ) ;
#175 = PRODUCT_DEFINITION ( 'UNKNOWN', '', #15, #94 ) ;
ENDSEC;
END-ISO-10303-21;
