ISO-10303-21;
HEADER;
FILE_DESCRIPTION (( 'STEP AP214' ),
    '1' );
FILE_NAME ('TTN166722-E0W.STEP',
    '2018-10-15T13:55:13',
    ( '' ),
    ( '' ),
    'SwSTEP 2.0',
    'SolidWorks 2018',
    '' );
FILE_SCHEMA (( 'AUTOMOTIVE_DESIGN' ));
ENDSEC;

DATA;
#1 = PRODUCT_RELATED_PRODUCT_CATEGORY ( 'part', '', ( #22 ) ) ;
#2 = EDGE_LOOP ( 'NONE', ( #197, #93, #85, #148 ) ) ;
#3 = CARTESIAN_POINT ( 'NONE',  ( 35.00000000000000711, 0.0000000000000000000, 3.000000000000000000 ) ) ;
#4 =( LENGTH_UNIT ( ) NAMED_UNIT ( * ) SI_UNIT ( .MILLI., .METRE. ) );
#5 = LINE ( 'NONE', #97, #64 ) ;
#6 = ORIENTED_EDGE ( 'NONE', *, *, #141, .F. ) ;
#7 = PLANE ( 'NONE',  #158 ) ;
#8 = VECTOR ( 'NONE', #132, 1000.000000000000000 ) ;
#9 = CARTESIAN_POINT ( 'NONE',  ( 0.0000000000000000000, 0.0000000000000000000, 3.000000000000000000 ) ) ;
#10 = CARTESIAN_POINT ( 'NONE',  ( 0.0000000000000000000, 0.0000000000000000000, 0.0000000000000000000 ) ) ;
#11 =( GEOMETRIC_REPRESENTATION_CONTEXT ( 3 ) GLOBAL_UNCERTAINTY_ASSIGNED_CONTEXT ( ( #183 ) ) GLOBAL_UNIT_ASSIGNED_CONTEXT ( ( #58, #92, #192 ) ) REPRESENTATION_CONTEXT ( 'NONE', 'WORKASPACE' ) );
#12 = DIRECTION ( 'NONE',  ( 0.0000000000000000000, 1.000000000000000000, 0.0000000000000000000 ) ) ;
#13 = CARTESIAN_POINT ( 'NONE',  ( 0.0000000000000000000, 0.0000000000000000000, 0.0000000000000000000 ) ) ;
#14 = VECTOR ( 'NONE', #117, 1000.000000000000000 ) ;
#15 = ADVANCED_FACE ( 'NONE', ( #199 ), #7, .F. ) ;
#16 = ADVANCED_FACE ( 'NONE', ( #202 ), #184, .T. ) ;
#17 = DIRECTION ( 'NONE',  ( -1.000000000000000000, 0.0000000000000000000, -0.0000000000000000000 ) ) ;
#18 = CARTESIAN_POINT ( 'NONE',  ( 0.0000000000000000000, 0.0000000000000000000, 3.000000000000000000 ) ) ;
#19 = VECTOR ( 'NONE', #76, 1000.000000000000000 ) ;
#20 = EDGE_LOOP ( 'NONE', ( #37, #52, #122, #193 ) ) ;
#21 = ORIENTED_EDGE ( 'NONE', *, *, #141, .T. ) ;
#22 = PRODUCT ( 'TTN166722-E0W', 'TTN166722-E0W', '', ( #98 ) ) ;
#23 = LINE ( 'NONE', #90, #116 ) ;
#24 = DIRECTION ( 'NONE',  ( 0.0000000000000000000, 1.000000000000000000, 0.0000000000000000000 ) ) ;
#25 = EDGE_LOOP ( 'NONE', ( #82, #28, #40, #6 ) ) ;
#26 = DIRECTION ( 'NONE',  ( 0.0000000000000000000, 0.0000000000000000000, -1.000000000000000000 ) ) ;
#27 = ORIENTED_EDGE ( 'NONE', *, *, #109, .T. ) ;
#28 = ORIENTED_EDGE ( 'NONE', *, *, #147, .F. ) ;
#29 = VERTEX_POINT ( 'NONE', #54 ) ;
#30 = DIRECTION ( 'NONE',  ( 0.0000000000000000000, 0.0000000000000000000, 1.000000000000000000 ) ) ;
#31 =( NAMED_UNIT ( * ) SI_UNIT ( $, .STERADIAN. ) SOLID_ANGLE_UNIT ( ) );
#32 = ADVANCED_FACE ( 'NONE', ( #121 ), #191, .F. ) ;
#33 = CLOSED_SHELL ( 'NONE', ( #172, #142, #47, #15, #32, #16 ) ) ;
#34 = DIRECTION ( 'NONE',  ( 0.0000000000000000000, -0.0000000000000000000, -1.000000000000000000 ) ) ;
#35 = VECTOR ( 'NONE', #79, 1000.000000000000000 ) ;
#36 = DIRECTION ( 'NONE',  ( -1.000000000000000000, 0.0000000000000000000, -0.0000000000000000000 ) ) ;
#37 = ORIENTED_EDGE ( 'NONE', *, *, #147, .T. ) ;
#38 = CARTESIAN_POINT ( 'NONE',  ( 35.00000000000000711, 0.0000000000000000000, 3.000000000000000000 ) ) ;
#39 = CARTESIAN_POINT ( 'NONE',  ( 35.00000000000000711, 0.0000000000000000000, 3.000000000000000000 ) ) ;
#40 = ORIENTED_EDGE ( 'NONE', *, *, #145, .F. ) ;
#41 = ORIENTED_EDGE ( 'NONE', *, *, #74, .T. ) ;
#42 = ORIENTED_EDGE ( 'NONE', *, *, #114, .T. ) ;
#43 = PRODUCT_DEFINITION_SHAPE ( 'NONE', 'NONE',  #159 ) ;
#44 = PRESENTATION_STYLE_ASSIGNMENT (( #146 ) ) ;
#45 = CARTESIAN_POINT ( 'NONE',  ( 35.00000000000000711, 0.0000000000000000000, 0.0000000000000000000 ) ) ;
#46 = PLANE ( 'NONE',  #100 ) ;
#47 = ADVANCED_FACE ( 'NONE', ( #91 ), #174, .F. ) ;
#48 = EDGE_CURVE ( 'NONE', #29, #170, #23, .T. ) ;
#49 = VECTOR ( 'NONE', #24, 1000.000000000000000 ) ;
#50 =( NAMED_UNIT ( * ) PLANE_ANGLE_UNIT ( ) SI_UNIT ( $, .RADIAN. ) );
#51 = APPLICATION_PROTOCOL_DEFINITION ( 'draft international standard', 'automotive_design', 1998, #171 ) ;
#52 = ORIENTED_EDGE ( 'NONE', *, *, #109, .F. ) ;
#53 = STYLED_ITEM ( 'NONE', ( #131 ), #139 ) ;
#54 = CARTESIAN_POINT ( 'NONE',  ( 35.00000000000000711, 52.00000000000000000, 3.000000000000000000 ) ) ;
#55 = CARTESIAN_POINT ( 'NONE',  ( 0.0000000000000000000, 0.0000000000000000000, 3.000000000000000000 ) ) ;
#56 = EDGE_CURVE ( 'NONE', #104, #105, #107, .T. ) ;
#57 = VECTOR ( 'NONE', #178, 1000.000000000000000 ) ;
#58 =( LENGTH_UNIT ( ) NAMED_UNIT ( * ) SI_UNIT ( .MILLI., .METRE. ) );
#59 = PRESENTATION_LAYER_ASSIGNMENT (  '', '', ( #53 ) ) ;
#60 = CARTESIAN_POINT ( 'NONE',  ( 0.0000000000000000000, 0.0000000000000000000, 0.0000000000000000000 ) ) ;
#61 = LINE ( 'NONE', #38, #160 ) ;
#62 = DIRECTION ( 'NONE',  ( 0.0000000000000000000, 1.000000000000000000, 0.0000000000000000000 ) ) ;
#63 = CARTESIAN_POINT ( 'NONE',  ( 0.0000000000000000000, 0.0000000000000000000, 3.000000000000000000 ) ) ;
#64 = VECTOR ( 'NONE', #177, 1000.000000000000000 ) ;
#65 = SURFACE_SIDE_STYLE ('',( #168 ) ) ;
#66 = DIRECTION ( 'NONE',  ( 0.0000000000000000000, 0.0000000000000000000, -1.000000000000000000 ) ) ;
#67 = EDGE_LOOP ( 'NONE', ( #71, #186, #41, #120 ) ) ;
#68 = DIRECTION ( 'NONE',  ( -1.000000000000000000, -0.0000000000000000000, -0.0000000000000000000 ) ) ;
#69 = EDGE_CURVE ( 'NONE', #170, #104, #157, .T. ) ;
#70 = DIRECTION ( 'NONE',  ( -0.0000000000000000000, -0.0000000000000000000, -1.000000000000000000 ) ) ;
#71 = ORIENTED_EDGE ( 'NONE', *, *, #69, .T. ) ;
#72 = CARTESIAN_POINT ( 'NONE',  ( 35.00000000000000711, 52.00000000000000000, 3.000000000000000000 ) ) ;
#73 = LINE ( 'NONE', #3, #35 ) ;
#74 = EDGE_CURVE ( 'NONE', #105, #29, #61, .T. ) ;
#75 = PRODUCT_DEFINITION_CONTEXT ( 'detailed design', #171, 'design' ) ;
#76 = DIRECTION ( 'NONE',  ( -0.0000000000000000000, -0.0000000000000000000, -1.000000000000000000 ) ) ;
#77 = CARTESIAN_POINT ( 'NONE',  ( 35.00000000000000711, 52.00000000000000000, 0.0000000000000000000 ) ) ;
#78 = AXIS2_PLACEMENT_3D ( 'NONE', #55, #112, #17 ) ;
#79 = DIRECTION ( 'NONE',  ( -0.0000000000000000000, -0.0000000000000000000, -1.000000000000000000 ) ) ;
#80 = UNCERTAINTY_MEASURE_WITH_UNIT (LENGTH_MEASURE( 1.000000000000000082E-05 ), #201, 'distance_accuracy_value', 'NONE');
#81 = FACE_OUTER_BOUND ( 'NONE', #113, .T. ) ;
#82 = ORIENTED_EDGE ( 'NONE', *, *, #118, .F. ) ;
#83 = SURFACE_STYLE_USAGE ( .BOTH. , #65 ) ;
#84 = SURFACE_STYLE_FILL_AREA ( #187 ) ;
#85 = ORIENTED_EDGE ( 'NONE', *, *, #74, .F. ) ;
#86 = DIRECTION ( 'NONE',  ( 1.000000000000000000, 0.0000000000000000000, 0.0000000000000000000 ) ) ;
#87 = CARTESIAN_POINT ( 'NONE',  ( 0.0000000000000000000, 52.00000000000000000, 3.000000000000000000 ) ) ;
#88 = VERTEX_POINT ( 'NONE', #143 ) ;
#89 = FILL_AREA_STYLE_COLOUR ( '', #165 ) ;
#90 = CARTESIAN_POINT ( 'NONE',  ( 0.0000000000000000000, 52.00000000000000000, 3.000000000000000000 ) ) ;
#91 = FACE_OUTER_BOUND ( 'NONE', #2, .T. ) ;
#92 =( NAMED_UNIT ( * ) PLANE_ANGLE_UNIT ( ) SI_UNIT ( $, .RADIAN. ) );
#93 = ORIENTED_EDGE ( 'NONE', *, *, #135, .F. ) ;
#94 = SURFACE_SIDE_STYLE ('',( #84 ) ) ;
#95 = LINE ( 'NONE', #18, #14 ) ;
#96 = MANIFOLD_SOLID_BREP ( 'Boss-Extrude1', #33 ) ;
#97 = CARTESIAN_POINT ( 'NONE',  ( 0.0000000000000000000, 52.00000000000000000, 0.0000000000000000000 ) ) ;
#98 = PRODUCT_CONTEXT ( 'NONE', #182, 'mechanical' ) ;
#99 = CARTESIAN_POINT ( 'NONE',  ( 0.0000000000000000000, 0.0000000000000000000, 3.000000000000000000 ) ) ;
#100 = AXIS2_PLACEMENT_3D ( 'NONE', #163, #125, #26 ) ;
#101 = CARTESIAN_POINT ( 'NONE',  ( 35.00000000000000711, 0.0000000000000000000, 3.000000000000000000 ) ) ;
#102 = PRESENTATION_LAYER_ASSIGNMENT (  '', '', ( #130 ) ) ;
#103 = AXIS2_PLACEMENT_3D ( 'NONE', #101, #156, #129 ) ;
#104 = VERTEX_POINT ( 'NONE', #99 ) ;
#105 = VERTEX_POINT ( 'NONE', #39 ) ;
#106 = UNCERTAINTY_MEASURE_WITH_UNIT (LENGTH_MEASURE( 1.000000000000000082E-05 ), #4, 'distance_accuracy_value', 'NONE');
#107 = LINE ( 'NONE', #9, #151 ) ;
#108 = APPLICATION_PROTOCOL_DEFINITION ( 'draft international standard', 'automotive_design', 1998, #182 ) ;
#109 = EDGE_CURVE ( 'NONE', #170, #88, #179, .T. ) ;
#110 = SHAPE_DEFINITION_REPRESENTATION ( #43, #139 ) ;
#111 = FILL_AREA_STYLE ('',( #164 ) ) ;
#112 = DIRECTION ( 'NONE',  ( 0.0000000000000000000, 0.0000000000000000000, -1.000000000000000000 ) ) ;
#113 = EDGE_LOOP ( 'NONE', ( #21, #161, #188, #42 ) ) ;
#114 = EDGE_CURVE ( 'NONE', #104, #127, #95, .T. ) ;
#115 = DIRECTION ( 'NONE',  ( 1.000000000000000000, 0.0000000000000000000, 0.0000000000000000000 ) ) ;
#116 = VECTOR ( 'NONE', #68, 1000.000000000000000 ) ;
#117 = DIRECTION ( 'NONE',  ( -0.0000000000000000000, -0.0000000000000000000, -1.000000000000000000 ) ) ;
#118 = EDGE_CURVE ( 'NONE', #88, #127, #175, .T. ) ;
#119 = VECTOR ( 'NONE', #176, 1000.000000000000000 ) ;
#120 = ORIENTED_EDGE ( 'NONE', *, *, #48, .T. ) ;
#121 = FACE_OUTER_BOUND ( 'NONE', #67, .T. ) ;
#122 = ORIENTED_EDGE ( 'NONE', *, *, #48, .F. ) ;
#123 = CARTESIAN_POINT ( 'NONE',  ( 0.0000000000000000000, 0.0000000000000000000, 0.0000000000000000000 ) ) ;
#124 = CARTESIAN_POINT ( 'NONE',  ( 35.00000000000000711, 0.0000000000000000000, 0.0000000000000000000 ) ) ;
#125 = DIRECTION ( 'NONE',  ( 1.000000000000000000, 0.0000000000000000000, 0.0000000000000000000 ) ) ;
#126 = VECTOR ( 'NONE', #70, 1000.000000000000000 ) ;
#127 = VERTEX_POINT ( 'NONE', #195 ) ;
#128 = FACE_OUTER_BOUND ( 'NONE', #180, .T. ) ;
#129 = DIRECTION ( 'NONE',  ( 0.0000000000000000000, 0.0000000000000000000, 1.000000000000000000 ) ) ;
#130 = STYLED_ITEM ( 'NONE', ( #44 ), #96 ) ;
#131 = PRESENTATION_STYLE_ASSIGNMENT (( #83 ) ) ;
#132 = DIRECTION ( 'NONE',  ( -0.0000000000000000000, -1.000000000000000000, -0.0000000000000000000 ) ) ;
#133 = ORIENTED_EDGE ( 'NONE', *, *, #118, .T. ) ;
#134 = COLOUR_RGB ( '',0.7529411764705882248, 0.7529411764705882248, 0.7529411764705882248 ) ;
#135 = EDGE_CURVE ( 'NONE', #29, #200, #136, .T. ) ;
#136 = LINE ( 'NONE', #72, #19 ) ;
#137 =( NAMED_UNIT ( * ) SI_UNIT ( $, .STERADIAN. ) SOLID_ANGLE_UNIT ( ) );
#138 = CARTESIAN_POINT ( 'NONE',  ( 0.0000000000000000000, 52.00000000000000000, 3.000000000000000000 ) ) ;
#139 = ADVANCED_BREP_SHAPE_REPRESENTATION ( 'TTN166722-E0W', ( #96, #149 ), #198 ) ;
#140 = PLANE ( 'NONE',  #181 ) ;
#141 = EDGE_CURVE ( 'NONE', #127, #150, #169, .T. ) ;
#142 = ADVANCED_FACE ( 'NONE', ( #81 ), #140, .F. ) ;
#143 = CARTESIAN_POINT ( 'NONE',  ( 0.0000000000000000000, 52.00000000000000000, 0.0000000000000000000 ) ) ;
#144 = LINE ( 'NONE', #124, #49 ) ;
#145 = EDGE_CURVE ( 'NONE', #150, #200, #144, .T. ) ;
#146 = SURFACE_STYLE_USAGE ( .BOTH. , #94 ) ;
#147 = EDGE_CURVE ( 'NONE', #200, #88, #5, .T. ) ;
#148 = ORIENTED_EDGE ( 'NONE', *, *, #153, .T. ) ;
#149 = AXIS2_PLACEMENT_3D ( 'NONE', #123, #30, #86 ) ;
#150 = VERTEX_POINT ( 'NONE', #45 ) ;
#151 = VECTOR ( 'NONE', #115, 1000.000000000000000 ) ;
#152 = DIRECTION ( 'NONE',  ( 0.0000000000000000000, -0.0000000000000000000, 1.000000000000000000 ) ) ;
#153 = EDGE_CURVE ( 'NONE', #105, #150, #73, .T. ) ;
#154 =( NAMED_UNIT ( * ) PLANE_ANGLE_UNIT ( ) SI_UNIT ( $, .RADIAN. ) );
#155 = ORIENTED_EDGE ( 'NONE', *, *, #114, .F. ) ;
#156 = DIRECTION ( 'NONE',  ( -1.000000000000000000, 0.0000000000000000000, 0.0000000000000000000 ) ) ;
#157 = LINE ( 'NONE', #173, #8 ) ;
#158 = AXIS2_PLACEMENT_3D ( 'NONE', #87, #189, #34 ) ;
#159 = PRODUCT_DEFINITION ( 'UNKNOWN', '', #190, #75 ) ;
#160 = VECTOR ( 'NONE', #12, 1000.000000000000000 ) ;
#161 = ORIENTED_EDGE ( 'NONE', *, *, #153, .F. ) ;
#162 = MECHANICAL_DESIGN_GEOMETRIC_PRESENTATION_REPRESENTATION (  '', ( #130 ), #11 ) ;
#163 = CARTESIAN_POINT ( 'NONE',  ( 0.0000000000000000000, 0.0000000000000000000, 3.000000000000000000 ) ) ;
#164 = FILL_AREA_STYLE_COLOUR ( '', #134 ) ;
#165 = COLOUR_RGB ( '',0.7529411764705882248, 0.7529411764705882248, 0.7529411764705882248 ) ;
#166 = MECHANICAL_DESIGN_GEOMETRIC_PRESENTATION_REPRESENTATION (  '', ( #53 ), #185 ) ;
#167 = AXIS2_PLACEMENT_3D ( 'NONE', #10, #66, #36 ) ;
#168 = SURFACE_STYLE_FILL_AREA ( #111 ) ;
#169 = LINE ( 'NONE', #60, #57 ) ;
#170 = VERTEX_POINT ( 'NONE', #138 ) ;
#171 = APPLICATION_CONTEXT ( 'automotive_design' ) ;
#172 = ADVANCED_FACE ( 'NONE', ( #128 ), #46, .F. ) ;
#173 = CARTESIAN_POINT ( 'NONE',  ( 0.0000000000000000000, 0.0000000000000000000, 3.000000000000000000 ) ) ;
#174 = PLANE ( 'NONE',  #103 ) ;
#175 = LINE ( 'NONE', #13, #119 ) ;
#176 = DIRECTION ( 'NONE',  ( -0.0000000000000000000, -1.000000000000000000, -0.0000000000000000000 ) ) ;
#177 = DIRECTION ( 'NONE',  ( -1.000000000000000000, -0.0000000000000000000, -0.0000000000000000000 ) ) ;
#178 = DIRECTION ( 'NONE',  ( 1.000000000000000000, 0.0000000000000000000, 0.0000000000000000000 ) ) ;
#179 = LINE ( 'NONE', #196, #126 ) ;
#180 = EDGE_LOOP ( 'NONE', ( #133, #155, #194, #27 ) ) ;
#181 = AXIS2_PLACEMENT_3D ( 'NONE', #63, #62, #152 ) ;
#182 = APPLICATION_CONTEXT ( 'automotive_design' ) ;
#183 = UNCERTAINTY_MEASURE_WITH_UNIT (LENGTH_MEASURE( 1.000000000000000082E-05 ), #58, 'distance_accuracy_value', 'NONE');
#184 = PLANE ( 'NONE',  #167 ) ;
#185 =( GEOMETRIC_REPRESENTATION_CONTEXT ( 3 ) GLOBAL_UNCERTAINTY_ASSIGNED_CONTEXT ( ( #106 ) ) GLOBAL_UNIT_ASSIGNED_CONTEXT ( ( #4, #154, #31 ) ) REPRESENTATION_CONTEXT ( 'NONE', 'WORKASPACE' ) );
#186 = ORIENTED_EDGE ( 'NONE', *, *, #56, .T. ) ;
#187 = FILL_AREA_STYLE ('',( #89 ) ) ;
#188 = ORIENTED_EDGE ( 'NONE', *, *, #56, .F. ) ;
#189 = DIRECTION ( 'NONE',  ( 0.0000000000000000000, -1.000000000000000000, 0.0000000000000000000 ) ) ;
#190 = PRODUCT_DEFINITION_FORMATION_WITH_SPECIFIED_SOURCE ( 'ANY', '', #22, .NOT_KNOWN. ) ;
#191 = PLANE ( 'NONE',  #78 ) ;
#192 =( NAMED_UNIT ( * ) SI_UNIT ( $, .STERADIAN. ) SOLID_ANGLE_UNIT ( ) );
#193 = ORIENTED_EDGE ( 'NONE', *, *, #135, .T. ) ;
#194 = ORIENTED_EDGE ( 'NONE', *, *, #69, .F. ) ;
#195 = CARTESIAN_POINT ( 'NONE',  ( 0.0000000000000000000, 0.0000000000000000000, 0.0000000000000000000 ) ) ;
#196 = CARTESIAN_POINT ( 'NONE',  ( 0.0000000000000000000, 52.00000000000000000, 3.000000000000000000 ) ) ;
#197 = ORIENTED_EDGE ( 'NONE', *, *, #145, .T. ) ;
#198 =( GEOMETRIC_REPRESENTATION_CONTEXT ( 3 ) GLOBAL_UNCERTAINTY_ASSIGNED_CONTEXT ( ( #80 ) ) GLOBAL_UNIT_ASSIGNED_CONTEXT ( ( #201, #50, #137 ) ) REPRESENTATION_CONTEXT ( 'NONE', 'WORKASPACE' ) );
#199 = FACE_OUTER_BOUND ( 'NONE', #20, .T. ) ;
#200 = VERTEX_POINT ( 'NONE', #77 ) ;
#201 =( LENGTH_UNIT ( ) NAMED_UNIT ( * ) SI_UNIT ( .MILLI., .METRE. ) );
#202 = FACE_OUTER_BOUND ( 'NONE', #25, .T. ) ;
ENDSEC;
END-ISO-10303-21;
