ISO-10303-21;
HEADER;
FILE_DESCRIPTION (( 'STEP AP203' ),
    '1' );
FILE_NAME ('Web Model 17229_17230.step',
    '2021-04-08T14:00:50',
    ( '' ),
    ( '' ),
    'SwSTEP 2.0',
    'SolidWorks 2018',
    '' );
FILE_SCHEMA (( 'CONFIG_CONTROL_DESIGN' ));
ENDSEC;

DATA;
#1 = SHAPE_DEFINITION_REPRESENTATION ( #175, #83 ) ;
#2 = AXIS2_PLACEMENT_3D ( 'NONE', #81, #80, #27 ) ;
#3 = ORIENTED_EDGE ( 'NONE', *, *, #151, .F. ) ;
#4 = PERSON_AND_ORGANIZATION ( #23, #43 ) ;
#5 = LOCAL_TIME ( 10, 0, 50.00000000000000000, #71 ) ;
#6 = PLANE ( 'NONE',  #16 ) ;
#7 = CARTESIAN_POINT ( 'NONE',  ( 0.000000000000000000, 0.000000000000000000, 1.000000000000000000 ) ) ;
#8 = PRODUCT ( 'Web Model 17229_17230', 'Web Model 17229_17230', '', ( #145 ) ) ;
#9 = CYLINDRICAL_SURFACE ( 'NONE', #119, 12.50000000000000000 ) ;
#10 = EDGE_LOOP ( 'NONE', ( #152, #45, #112, #130 ) ) ;
#11 = APPROVAL_ROLE ( '' ) ;
#12 = APPLICATION_CONTEXT ( 'configuration controlled 3d designs of mechanical parts and assemblies' ) ;
#13 = APPLICATION_PROTOCOL_DEFINITION ( 'international standard', 'config_control_design', 1994, #12 ) ;
#14 = EDGE_CURVE ( 'NONE', #55, #116, #63, .T. ) ;
#15 = EDGE_LOOP ( 'NONE', ( #173, #160 ) ) ;
#16 = AXIS2_PLACEMENT_3D ( 'NONE', #88, #157, #118 ) ;
#17 = DATE_AND_TIME ( #135, #165 ) ;
#18 = DATE_AND_TIME ( #147, #46 ) ;
#19 = ORIENTED_EDGE ( 'NONE', *, *, #47, .T. ) ;
#20 = CARTESIAN_POINT ( 'NONE',  ( -12.50000000000000000, 0.000000000000000000, 1.000000000000000000 ) ) ;
#21 = AXIS2_PLACEMENT_3D ( 'NONE', #7, #148, #54 ) ;
#22 = PLANE ( 'NONE',  #115 ) ;
#23 = PERSON ( 'UNSPECIFIED', 'UNSPECIFIED', 'UNSPECIFIED', ('UNSPECIFIED'), ('UNSPECIFIED'), ('UNSPECIFIED') ) ;
#24 = CARTESIAN_POINT ( 'NONE',  ( 12.50000000000000000, 1.530808498934191521E-15, 1.000000000000000000 ) ) ;
#25 =( LENGTH_UNIT ( ) NAMED_UNIT ( * ) SI_UNIT ( .MILLI., .METRE. ) );
#26 = FACE_OUTER_BOUND ( 'NONE', #15, .T. ) ;
#27 = DIRECTION ( 'NONE',  ( 1.000000000000000000, 0.000000000000000000, 0.000000000000000000 ) ) ;
#28 = PRODUCT_RELATED_PRODUCT_CATEGORY ( 'detail', '', ( #8 ) ) ;
#29 = DIRECTION ( 'NONE',  ( 0.000000000000000000, 0.000000000000000000, 1.000000000000000000 ) ) ;
#30 = LINE ( 'NONE', #133, #140 ) ;
#31 = COORDINATED_UNIVERSAL_TIME_OFFSET ( 5, 0, .BEHIND. ) ;
#32 = APPROVAL_PERSON_ORGANIZATION ( #100, #72, #79 ) ;
#33 = PRODUCT_DEFINITION ( 'UNKNOWN', '', #97, #49 ) ;
#34 = EDGE_LOOP ( 'NONE', ( #3, #19, #123, #138 ) ) ;
#35 = DIRECTION ( 'NONE',  ( -0.000000000000000000, -0.000000000000000000, -1.000000000000000000 ) ) ;
#36 = CIRCLE ( 'NONE', #58, 12.50000000000000000 ) ;
#37 = CARTESIAN_POINT ( 'NONE',  ( 0.000000000000000000, 0.000000000000000000, 0.000000000000000000 ) ) ;
#38 = PERSON_AND_ORGANIZATION_ROLE ( 'design_owner' ) ;
#39 = AXIS2_PLACEMENT_3D ( 'NONE', #105, #29, #171 ) ;
#40 =( NAMED_UNIT ( * ) SI_UNIT ( $, .STERADIAN. ) SOLID_ANGLE_UNIT ( ) );
#41 = APPROVAL_DATE_TIME ( #75, #72 ) ;
#42 = APPROVAL_STATUS ( 'not_yet_approved' ) ;
#43 = ORGANIZATION ( 'UNSPECIFIED', 'UNSPECIFIED', '' ) ;
#44 = CC_DESIGN_DATE_AND_TIME_ASSIGNMENT ( #18, #149, ( #52 ) ) ;
#45 = ORIENTED_EDGE ( 'NONE', *, *, #141, .F. ) ;
#46 = LOCAL_TIME ( 10, 0, 50.00000000000000000, #51 ) ;
#47 = EDGE_CURVE ( 'NONE', #166, #154, #30, .T. ) ;
#48 = CIRCLE ( 'NONE', #139, 12.50000000000000000 ) ;
#49 = DESIGN_CONTEXT ( 'detailed design', #159, 'design' ) ;
#50 = ORIENTED_EDGE ( 'NONE', *, *, #151, .T. ) ;
#51 = COORDINATED_UNIVERSAL_TIME_OFFSET ( 5, 0, .BEHIND. ) ;
#52 = SECURITY_CLASSIFICATION ( '', '', #158 ) ;
#53 = CARTESIAN_POINT ( 'NONE',  ( 0.000000000000000000, 0.000000000000000000, 0.000000000000000000 ) ) ;
#54 = DIRECTION ( 'NONE',  ( 1.000000000000000000, 0.000000000000000000, 0.000000000000000000 ) ) ;
#55 = VERTEX_POINT ( 'NONE', #20 ) ;
#56 = DIRECTION ( 'NONE',  ( -1.000000000000000000, 0.000000000000000000, 0.000000000000000000 ) ) ;
#57 = APPROVAL_PERSON_ORGANIZATION ( #128, #129, #161 ) ;
#58 = AXIS2_PLACEMENT_3D ( 'NONE', #53, #101, #77 ) ;
#59 = DATE_AND_TIME ( #89, #136 ) ;
#60 = DIRECTION ( 'NONE',  ( -1.000000000000000000, 0.000000000000000000, 0.000000000000000000 ) ) ;
#61 = CC_DESIGN_DATE_AND_TIME_ASSIGNMENT ( #59, #67, ( #33 ) ) ;
#62 = LOCAL_TIME ( 10, 0, 50.00000000000000000, #167 ) ;
#63 = LINE ( 'NONE', #134, #164 ) ;
#64 = CARTESIAN_POINT ( 'NONE',  ( 0.000000000000000000, 0.000000000000000000, 1.000000000000000000 ) ) ;
#65 = DIRECTION ( 'NONE',  ( -0.000000000000000000, -0.000000000000000000, -1.000000000000000000 ) ) ;
#66 = AXIS2_PLACEMENT_3D ( 'NONE', #64, #35, #60 ) ;
#67 = DATE_TIME_ROLE ( 'creation_date' ) ;
#68 = APPROVAL_STATUS ( 'not_yet_approved' ) ;
#69 = CIRCLE ( 'NONE', #21, 12.50000000000000000 ) ;
#70 = CLOSED_SHELL ( 'NONE', ( #156, #109, #92, #121 ) ) ;
#71 = COORDINATED_UNIVERSAL_TIME_OFFSET ( 5, 0, .BEHIND. ) ;
#72 = APPROVAL ( #42, 'UNSPECIFIED' ) ;
#73 = CYLINDRICAL_SURFACE ( 'NONE', #66, 12.50000000000000000 ) ;
#74 = CIRCLE ( 'NONE', #39, 12.50000000000000000 ) ;
#75 = DATE_AND_TIME ( #114, #5 ) ;
#76 = CARTESIAN_POINT ( 'NONE',  ( -12.50000000000000000, 0.000000000000000000, 0.000000000000000000 ) ) ;
#77 = DIRECTION ( 'NONE',  ( 1.000000000000000000, 0.000000000000000000, 0.000000000000000000 ) ) ;
#78 = CC_DESIGN_APPROVAL ( #129, ( #52 ) ) ;
#79 = APPROVAL_ROLE ( '' ) ;
#80 = DIRECTION ( 'NONE',  ( 0.000000000000000000, 0.000000000000000000, 1.000000000000000000 ) ) ;
#81 = CARTESIAN_POINT ( 'NONE',  ( 0.000000000000000000, 0.000000000000000000, 0.000000000000000000 ) ) ;
#82 = APPROVAL_DATE_TIME ( #17, #153 ) ;
#83 = ADVANCED_BREP_SHAPE_REPRESENTATION ( 'Web Model 17229_17230', ( #150, #2 ), #125 ) ;
#84 = EDGE_LOOP ( 'NONE', ( #146, #50 ) ) ;
#85 = PERSON_AND_ORGANIZATION ( #23, #43 ) ;
#86 = DIRECTION ( 'NONE',  ( 1.000000000000000000, 0.000000000000000000, 0.000000000000000000 ) ) ;
#87 = CC_DESIGN_PERSON_AND_ORGANIZATION_ASSIGNMENT ( #4, #126, ( #52 ) ) ;
#88 = CARTESIAN_POINT ( 'NONE',  ( 0.000000000000000000, 0.000000000000000000, 0.000000000000000000 ) ) ;
#89 = CALENDAR_DATE ( 2021, 8, 4 ) ;
#90 = CC_DESIGN_PERSON_AND_ORGANIZATION_ASSIGNMENT ( #174, #170, ( #33 ) ) ;
#91 = APPROVAL_STATUS ( 'not_yet_approved' ) ;
#92 = ADVANCED_FACE ( 'NONE', ( #172 ), #22, .T. ) ;
#93 =( NAMED_UNIT ( * ) PLANE_ANGLE_UNIT ( ) SI_UNIT ( $, .RADIAN. ) );
#94 = PERSON_AND_ORGANIZATION ( #23, #43 ) ;
#95 = CC_DESIGN_PERSON_AND_ORGANIZATION_ASSIGNMENT ( #142, #106, ( #97 ) ) ;
#96 = CC_DESIGN_PERSON_AND_ORGANIZATION_ASSIGNMENT ( #117, #127, ( #97 ) ) ;
#97 = PRODUCT_DEFINITION_FORMATION_WITH_SPECIFIED_SOURCE ( 'ANY', '', #8, .NOT_KNOWN. ) ;
#98 = DATE_AND_TIME ( #168, #62 ) ;
#99 = APPROVAL_PERSON_ORGANIZATION ( #94, #153, #11 ) ;
#100 = PERSON_AND_ORGANIZATION ( #23, #43 ) ;
#101 = DIRECTION ( 'NONE',  ( 0.000000000000000000, 0.000000000000000000, 1.000000000000000000 ) ) ;
#102 = APPROVAL_DATE_TIME ( #98, #129 ) ;
#103 = DIRECTION ( 'NONE',  ( -0.000000000000000000, -0.000000000000000000, -1.000000000000000000 ) ) ;
#104 = EDGE_CURVE ( 'NONE', #116, #154, #36, .T. ) ;
#105 = CARTESIAN_POINT ( 'NONE',  ( 0.000000000000000000, 0.000000000000000000, 1.000000000000000000 ) ) ;
#106 = PERSON_AND_ORGANIZATION_ROLE ( 'creator' ) ;
#107 = APPLICATION_PROTOCOL_DEFINITION ( 'international standard', 'config_control_design', 1994, #159 ) ;
#108 = COORDINATED_UNIVERSAL_TIME_OFFSET ( 5, 0, .BEHIND. ) ;
#109 = ADVANCED_FACE ( 'NONE', ( #111 ), #73, .T. ) ;
#110 = EDGE_CURVE ( 'NONE', #154, #116, #48, .T. ) ;
#111 = FACE_OUTER_BOUND ( 'NONE', #10, .T. ) ;
#112 = ORIENTED_EDGE ( 'NONE', *, *, #14, .T. ) ;
#113 = CC_DESIGN_APPROVAL ( #153, ( #97 ) ) ;
#114 = CALENDAR_DATE ( 2021, 8, 4 ) ;
#115 = AXIS2_PLACEMENT_3D ( 'NONE', #122, #143, #155 ) ;
#116 = VERTEX_POINT ( 'NONE', #76 ) ;
#117 = PERSON_AND_ORGANIZATION ( #23, #43 ) ;
#118 = DIRECTION ( 'NONE',  ( 1.000000000000000000, 0.000000000000000000, -0.000000000000000000 ) ) ;
#119 = AXIS2_PLACEMENT_3D ( 'NONE', #137, #65, #56 ) ;
#120 = DIRECTION ( 'NONE',  ( 0.000000000000000000, 0.000000000000000000, 1.000000000000000000 ) ) ;
#121 = ADVANCED_FACE ( 'NONE', ( #26 ), #6, .F. ) ;
#122 = CARTESIAN_POINT ( 'NONE',  ( 0.000000000000000000, 0.000000000000000000, 1.000000000000000000 ) ) ;
#123 = ORIENTED_EDGE ( 'NONE', *, *, #110, .T. ) ;
#124 = UNCERTAINTY_MEASURE_WITH_UNIT (LENGTH_MEASURE( 1.000000000000000082E-05 ), #25, 'distance_accuracy_value', 'NONE');
#125 =( GEOMETRIC_REPRESENTATION_CONTEXT ( 3 ) GLOBAL_UNCERTAINTY_ASSIGNED_CONTEXT ( ( #124 ) ) GLOBAL_UNIT_ASSIGNED_CONTEXT ( ( #25, #93, #40 ) ) REPRESENTATION_CONTEXT ( 'NONE', 'WORKASPACE' ) );
#126 = PERSON_AND_ORGANIZATION_ROLE ( 'classification_officer' ) ;
#127 = PERSON_AND_ORGANIZATION_ROLE ( 'design_supplier' ) ;
#128 = PERSON_AND_ORGANIZATION ( #23, #43 ) ;
#129 = APPROVAL ( #68, 'UNSPECIFIED' ) ;
#130 = ORIENTED_EDGE ( 'NONE', *, *, #104, .T. ) ;
#131 = CC_DESIGN_SECURITY_CLASSIFICATION ( #52, ( #97 ) ) ;
#132 = DIRECTION ( 'NONE',  ( -0.000000000000000000, -0.000000000000000000, -1.000000000000000000 ) ) ;
#133 = CARTESIAN_POINT ( 'NONE',  ( 12.50000000000000000, 1.530808498934191521E-15, 1.000000000000000000 ) ) ;
#134 = CARTESIAN_POINT ( 'NONE',  ( -12.50000000000000000, 0.000000000000000000, 1.000000000000000000 ) ) ;
#135 = CALENDAR_DATE ( 2021, 8, 4 ) ;
#136 = LOCAL_TIME ( 10, 0, 50.00000000000000000, #108 ) ;
#137 = CARTESIAN_POINT ( 'NONE',  ( 0.000000000000000000, 0.000000000000000000, 1.000000000000000000 ) ) ;
#138 = ORIENTED_EDGE ( 'NONE', *, *, #14, .F. ) ;
#139 = AXIS2_PLACEMENT_3D ( 'NONE', #37, #120, #86 ) ;
#140 = VECTOR ( 'NONE', #132, 1000.000000000000000 ) ;
#141 = EDGE_CURVE ( 'NONE', #55, #166, #69, .T. ) ;
#142 = PERSON_AND_ORGANIZATION ( #23, #43 ) ;
#143 = DIRECTION ( 'NONE',  ( 0.000000000000000000, 0.000000000000000000, 1.000000000000000000 ) ) ;
#144 = CC_DESIGN_APPROVAL ( #72, ( #33 ) ) ;
#145 = MECHANICAL_CONTEXT ( 'NONE', #12, 'mechanical' ) ;
#146 = ORIENTED_EDGE ( 'NONE', *, *, #141, .T. ) ;
#147 = CALENDAR_DATE ( 2021, 8, 4 ) ;
#148 = DIRECTION ( 'NONE',  ( 0.000000000000000000, 0.000000000000000000, 1.000000000000000000 ) ) ;
#149 = DATE_TIME_ROLE ( 'classification_date' ) ;
#150 = MANIFOLD_SOLID_BREP ( 'Boss-Extrude1', #70 ) ;
#151 = EDGE_CURVE ( 'NONE', #166, #55, #74, .T. ) ;
#152 = ORIENTED_EDGE ( 'NONE', *, *, #47, .F. ) ;
#153 = APPROVAL ( #91, 'UNSPECIFIED' ) ;
#154 = VERTEX_POINT ( 'NONE', #169 ) ;
#155 = DIRECTION ( 'NONE',  ( 1.000000000000000000, 0.000000000000000000, -0.000000000000000000 ) ) ;
#156 = ADVANCED_FACE ( 'NONE', ( #163 ), #9, .T. ) ;
#157 = DIRECTION ( 'NONE',  ( 0.000000000000000000, 0.000000000000000000, 1.000000000000000000 ) ) ;
#158 = SECURITY_CLASSIFICATION_LEVEL ( 'unclassified' ) ;
#159 = APPLICATION_CONTEXT ( 'configuration controlled 3d designs of mechanical parts and assemblies' ) ;
#160 = ORIENTED_EDGE ( 'NONE', *, *, #110, .F. ) ;
#161 = APPROVAL_ROLE ( '' ) ;
#162 = CC_DESIGN_PERSON_AND_ORGANIZATION_ASSIGNMENT ( #85, #38, ( #8 ) ) ;
#163 = FACE_OUTER_BOUND ( 'NONE', #34, .T. ) ;
#164 = VECTOR ( 'NONE', #103, 1000.000000000000000 ) ;
#165 = LOCAL_TIME ( 10, 0, 50.00000000000000000, #31 ) ;
#166 = VERTEX_POINT ( 'NONE', #24 ) ;
#167 = COORDINATED_UNIVERSAL_TIME_OFFSET ( 5, 0, .BEHIND. ) ;
#168 = CALENDAR_DATE ( 2021, 8, 4 ) ;
#169 = CARTESIAN_POINT ( 'NONE',  ( 12.50000000000000000, 1.530808498934191521E-15, 0.000000000000000000 ) ) ;
#170 = PERSON_AND_ORGANIZATION_ROLE ( 'creator' ) ;
#171 = DIRECTION ( 'NONE',  ( 1.000000000000000000, 0.000000000000000000, 0.000000000000000000 ) ) ;
#172 = FACE_OUTER_BOUND ( 'NONE', #84, .T. ) ;
#173 = ORIENTED_EDGE ( 'NONE', *, *, #104, .F. ) ;
#174 = PERSON_AND_ORGANIZATION ( #23, #43 ) ;
#175 = PRODUCT_DEFINITION_SHAPE ( 'NONE', 'NONE',  #33 ) ;
ENDSEC;
END-ISO-10303-21;
