  0
SECTION
  2
HEADER
  9
$ACADVER
  1
AC1014
  9
$ACADMAINTVER
 70
     0
  9
$DWGCODEPAGE
  3
ANSI_1252
  9
$INSBASE
 10
0.0
 20
0.0
 30
0.0
  9
$EXTMIN
 10
5.752015
 20
10.460221
 30
0.0
  9
$EXTMAX
 10
12.923229
 20
13.716673
 30
0.18
  9
$LIMMIN
 10
0.0
 20
0.0
  9
$LIMMAX
 10
17.0
 20
11.0
  9
$ORTHOMODE
 70
     0
  9
$REGENMODE
 70
     1
  9
$FILLMODE
 70
     1
  9
$QTEXTMODE
 70
     0
  9
$MIRRTEXT
 70
     0
  9
$DRAGMODE
 70
     2
  9
$LTSCALE
 40
0.25
  9
$OSMODE
 70
  2085
  9
$ATTMODE
 70
     1
  9
$TEXTSIZE
 40
0.15
  9
$TRACEWID
 40
0.05
  9
$TEXTSTYLE
  7
STANDARD
  9
$CLAYER
  8
S2
  9
$CELTYPE
  6
BYLAYER
  9
$CECOLOR
 62
   256
  9
$CELTSCALE
 40
1.0
  9
$DELOBJ
 70
     1
  9
$DISPSILH
 70
     0
  9
$DIMSCALE
 40
0.4
  9
$DIMASZ
 40
0.25
  9
$DIMEXO
 40
0.063
  9
$DIMDLI
 40
0.38
  9
$DIMRND
 40
0.0
  9
$DIMDLE
 40
0.0
  9
$DIMEXE
 40
0.06
  9
$DIMTP
 40
0.0
  9
$DIMTM
 40
0.0
  9
$DIMTXT
 40
0.18
  9
$DIMCEN
 40
0.09
  9
$DIMTSZ
 40
0.0
  9
$DIMTOL
 70
     0
  9
$DIMLIM
 70
     0
  9
$DIMTIH
 70
     1
  9
$DIMTOH
 70
     1
  9
$DIMSE1
 70
     0
  9
$DIMSE2
 70
     1
  9
$DIMTAD
 70
     0
  9
$DIMZIN
 70
     0
  9
$DIMBLK
  1

  9
$DIMASO
 70
     0
  9
$DIMSHO
 70
     0
  9
$DIMPOST
  1

  9
$DIMAPOST
  1

  9
$DIMALT
 70
     0
  9
$DIMALTD
 70
     2
  9
$DIMALTF
 40
25.4
  9
$DIMLFAC
 40
1.0
  9
$DIMTOFL
 70
     0
  9
$DIMTVP
 40
0.0
  9
$DIMTIX
 70
     0
  9
$DIMSOXD
 70
     0
  9
$DIMSAH
 70
     0
  9
$DIMBLK1
  1

  9
$DIMBLK2
  1

  9
$DIMSTYLE
  2
STANDARD
  9
$DIMCLRD
 70
     0
  9
$DIMCLRE
 70
     0
  9
$DIMCLRT
 70
     0
  9
$DIMTFAC
 40
1.0
  9
$DIMGAP
 40
0.09
  9
$DIMJUST
 70
     0
  9
$DIMSD1
 70
     0
  9
$DIMSD2
 70
     0
  9
$DIMTOLJ
 70
     1
  9
$DIMTZIN
 70
     0
  9
$DIMALTZ
 70
     0
  9
$DIMALTTZ
 70
     0
  9
$DIMFIT
 70
     3
  9
$DIMUPT
 70
     1
  9
$DIMUNIT
 70
     2
  9
$DIMDEC
 70
     3
  9
$DIMTDEC
 70
     4
  9
$DIMALTU
 70
     2
  9
$DIMALTTD
 70
     2
  9
$DIMTXSTY
  7
STANDARD
  9
$DIMAUNIT
 70
     0
  9
$LUNITS
 70
     2
  9
$LUPREC
 70
     3
  9
$SKETCHINC
 40
0.1
  9
$FILLETRAD
 40
0.0
  9
$AUNITS
 70
     0
  9
$AUPREC
 70
     0
  9
$MENU
  1
C:\R13\WIN\ACAD
  9
$ELEVATION
 40
0.0
  9
$PELEVATION
 40
0.0
  9
$THICKNESS
 40
0.0
  9
$LIMCHECK
 70
     0
  9
$BLIPMODE
 70
     0
  9
$CHAMFERA
 40
0.01
  9
$CHAMFERB
 40
0.01
  9
$CHAMFERC
 40
0.0
  9
$CHAMFERD
 40
0.0
  9
$SKPOLY
 70
     0
  9
$TDCREATE
 40
2449547.531668518
  9
$TDUPDATE
 40
2451894.376442604
  9
$TDINDWG
 40
1.3193869097
  9
$TDUSRTIMER
 40
1.3193869097
  9
$USRTIMER
 70
     1
  9
$ANGBASE
 50
0.0
  9
$ANGDIR
 70
     0
  9
$PDMODE
 70
     0
  9
$PDSIZE
 40
0.0
  9
$PLINEWID
 40
0.0
  9
$COORDS
 70
     2
  9
$SPLFRAME
 70
     0
  9
$SPLINETYPE
 70
     6
  9
$SPLINESEGS
 70
     8
  9
$ATTDIA
 70
     0
  9
$ATTREQ
 70
     1
  9
$HANDLING
 70
     1
  9
$HANDSEED
  5
21B1
  9
$SURFTAB1
 70
     6
  9
$SURFTAB2
 70
     6
  9
$SURFTYPE
 70
     6
  9
$SURFU
 70
     6
  9
$SURFV
 70
     6
  9
$UCSNAME
  2

  9
$UCSORG
 10
6.92027407757862
 20
12.50782063784504
 30
0.0
  9
$UCSXDIR
 10
1.0
 20
0.0
 30
0.0
  9
$UCSYDIR
 10
0.0
 20
1.0
 30
0.0
  9
$PUCSNAME
  2

  9
$PUCSORG
 10
4.789028513264677
 20
5.486174343911555
 30
0.0
  9
$PUCSXDIR
 10
1.0
 20
0.0
 30
0.0
  9
$PUCSYDIR
 10
0.0
 20
1.0
 30
0.0
  9
$USERI1
 70
     0
  9
$USERI2
 70
     0
  9
$USERI3
 70
     0
  9
$USERI4
 70
     0
  9
$USERI5
 70
     0
  9
$USERR1
 40
0.0
  9
$USERR2
 40
0.0
  9
$USERR3
 40
0.0
  9
$USERR4
 40
0.0
  9
$USERR5
 40
0.0
  9
$WORLDVIEW
 70
     1
  9
$SHADEDGE
 70
     3
  9
$SHADEDIF
 70
    70
  9
$TILEMODE
 70
     0
  9
$MAXACTVP
 70
    16
  9
$PINSBASE
 10
0.0
 20
0.0
 30
0.0
  9
$PLIMCHECK
 70
     0
  9
$PEXTMIN
 10
0.105666
 20
0.063804
 30
-0.17469
  9
$PEXTMAX
 10
16.149909
 20
11.76052
 30
0.34938
  9
$PLIMMIN
 10
0.0
 20
0.0
  9
$PLIMMAX
 10
12.0
 20
9.0
  9
$UNITMODE
 70
     0
  9
$VISRETAIN
 70
     0
  9
$PLINEGEN
 70
     0
  9
$PSLTSCALE
 70
     0
  9
$TREEDEPTH
 70
  3020
  9
$PICKSTYLE
 70
     1
  9
$CMLSTYLE
  2
STANDARD
  9
$CMLJUST
 70
     0
  9
$CMLSCALE
 40
1.0
  9
$PROXYGRAPHICS
 70
     1
  9
$MEASUREMENT
 70
     0
  0
ENDSEC
  0
SECTION
  2
CLASSES
  0
CLASS
  1
LWPOLYLINE
  2
AcDbPolyline
  3
"AutoCAD"
 90
        0
280
     0
281
     1
  0
ENDSEC
  0
SECTION
  2
TABLES
  0
TABLE
  2
VPORT
  5
8
100
AcDbSymbolTable
 70
     1
  0
VPORT
  5
1E63
100
AcDbSymbolTableRecord
100
AcDbViewportTableRecord
  2
*ACTIVE
 70
     0
 10
0.0
 20
0.0
 11
1.0
 21
1.0
 12
9.360456
 22
13.72026
 13
0.0
 23
0.0
 14
0.005
 24
0.005
 15
0.25
 25
0.25
 16
0.0
 26
0.0
 36
1.0
 17
0.0
 27
0.0
 37
0.0
 40
4.827808
 41
1.66895
 42
50.0
 43
0.0
 44
0.0
 50
0.0
 51
0.0
 71
     0
 72
   100
 73
     0
 74
     0
 75
     0
 76
     0
 77
     0
 78
     0
  0
ENDTAB
  0
TABLE
  2
LTYPE
  5
5
100
AcDbSymbolTable
 70
     3
  0
LTYPE
  5
12
100
AcDbSymbolTableRecord
100
AcDbLinetypeTableRecord
  2
BYBLOCK
 70
     0
  3

 72
    65
 73
     0
 40
0.0
  0
LTYPE
  5
13
100
AcDbSymbolTableRecord
100
AcDbLinetypeTableRecord
  2
BYLAYER
 70
     0
  3

 72
    65
 73
     0
 40
0.0
  0
LTYPE
  5
14
100
AcDbSymbolTableRecord
100
AcDbLinetypeTableRecord
  2
CONTINUOUS
 70
     0
  3
Solid line
 72
    65
 73
     0
 40
0.0
  0
LTYPE
  5
1C
100
AcDbSymbolTableRecord
100
AcDbLinetypeTableRecord
  2
HIDDEN
 70
     0
  3
__ __ __ __ __ __ __ __ __ __ __ __ __ __ __ __
 72
    65
 73
     2
 40
0.375
 49
0.25
 74
     0
 49
-0.125
 74
     0
  0
LTYPE
  5
1E5F
100
AcDbSymbolTableRecord
100
AcDbLinetypeTableRecord
  2
CENTER2
 70
     0
  3
___ _ ___ _ ___ _ ___ _ ___ _ ___ _ ___ _ ___ _
 72
    65
 73
     4
 40
1.125
 49
0.75
 74
     0
 49
-0.125
 74
     0
 49
0.125
 74
     0
 49
-0.125
 74
     0
  0
ENDTAB
  0
TABLE
  2
LAYER
  5
2
100
AcDbSymbolTable
 70
     8
  0
LAYER
  5
F
100
AcDbSymbolTableRecord
100
AcDbLayerTableRecord
  2
0
 70
     0
 62
     7
  6
CONTINUOUS
  0
LAYER
  5
22
100
AcDbSymbolTableRecord
100
AcDbLayerTableRecord
  2
BORDER
 70
     0
 62
     7
  6
CONTINUOUS
  0
LAYER
  5
23
100
AcDbSymbolTableRecord
100
AcDbLayerTableRecord
  2
S1
 70
     0
 62
     7
  6
CONTINUOUS
  0
LAYER
  5
24
100
AcDbSymbolTableRecord
100
AcDbLayerTableRecord
  2
DIM1
 70
     0
 62
     7
  6
CONTINUOUS
  0
LAYER
  5
26
100
AcDbSymbolTableRecord
100
AcDbLayerTableRecord
  2
S2
 70
     0
 62
     7
  6
CONTINUOUS
  0
LAYER
  5
2A
100
AcDbSymbolTableRecord
100
AcDbLayerTableRecord
  2
V-B
 70
     1
 62
     7
  6
CONTINUOUS
  0
LAYER
  5
11E7
100
AcDbSymbolTableRecord
100
AcDbLayerTableRecord
  2
D1
 70
     0
 62
     7
  6
CONTINUOUS
  0
LAYER
  5
1967
100
AcDbSymbolTableRecord
100
AcDbLayerTableRecord
  2
HOUSING
 70
     0
 62
     7
  6
CONTINUOUS
  0
ENDTAB
  0
TABLE
  2
STYLE
  5
3
100
AcDbSymbolTable
 70
     2
  0
STYLE
  5
10
100
AcDbSymbolTableRecord
100
AcDbTextStyleTableRecord
  2
STANDARD
 70
     0
 40
0.0
 41
1.0
 50
0.0
 71
     0
 42
0.15
  3
txt
  4

  0
STYLE
  5
E09
100
AcDbSymbolTableRecord
100
AcDbTextStyleTableRecord
  2
HL-HD
 70
     0
 40
0.0
 41
1.0
 50
0.0
 71
     0
 42
0.1
  3
TXT
  4

  0
ENDTAB
  0
TABLE
  2
VIEW
  5
6
100
AcDbSymbolTable
 70
     0
  0
ENDTAB
  0
TABLE
  2
UCS
  5
7
100
AcDbSymbolTable
 70
     0
  0
ENDTAB
  0
TABLE
  2
APPID
  5
9
100
AcDbSymbolTable
 70
     6
  0
APPID
  5
11
100
AcDbSymbolTableRecord
100
AcDbRegAppTableRecord
  2
ACAD
 70
     0
  0
APPID
  5
219A
100
AcDbSymbolTableRecord
100
AcDbRegAppTableRecord
  2
CONTENTTABDATA
 70
     0
  0
APPID
  5
219B
100
AcDbSymbolTableRecord
100
AcDbRegAppTableRecord
  2
CONTENTCURRENTTAB
 70
     0
  0
APPID
  5
21A0
100
AcDbSymbolTableRecord
100
AcDbRegAppTableRecord
  2
CONTENTBLOCKDESCRIPTION
 70
     0
  0
APPID
  5
21A8
100
AcDbSymbolTableRecord
100
AcDbRegAppTableRecord
  2
CONTENTLONGBLOCKNAME
 70
     0
  0
APPID
  5
21A9
100
AcDbSymbolTableRecord
100
AcDbRegAppTableRecord
  2
CONTENTBLOCKICON
 70
     0
  0
ENDTAB
  0
TABLE
  2
DIMSTYLE
  5
A
100
AcDbSymbolTable
 70
     1
  0
DIMSTYLE
105
12C
100
AcDbSymbolTableRecord
100
AcDbDimStyleTableRecord
  2
STANDARD
 70
     0
  3

  4

  5

  6

  7

 40
0.4
 41
0.25
 42
0.063
 43
0.38
 44
0.06
 45
0.0
 46
0.0
 47
0.0
 48
0.0
140
0.18
141
0.09
142
0.0
143
25.4
144
1.0
145
0.0
146
1.0
147
0.09
 71
     0
 72
     0
 73
     1
 74
     1
 75
     0
 76
     1
 77
     0
 78
     0
170
     0
171
     2
172
     0
173
     0
174
     0
175
     0
176
     0
177
     0
178
     0
270
     2
271
     3
272
     4
273
     2
274
     2
340
10
275
     0
280
     0
281
     0
282
     0
283
     1
284
     0
285
     0
286
     0
287
     3
288
     1
  0
ENDTAB
  0
TABLE
  2
BLOCK_RECORD
  5
1
100
AcDbSymbolTable
 70
     5
  0
BLOCK_RECORD
  5
18
100
AcDbSymbolTableRecord
100
AcDbBlockTableRecord
  2
*MODEL_SPACE
  0
BLOCK_RECORD
  5
15
100
AcDbSymbolTableRecord
100
AcDbBlockTableRecord
  2
*PAPER_SPACE
  0
BLOCK_RECORD
  5
1EB4
100
AcDbSymbolTableRecord
100
AcDbBlockTableRecord
  2
*X0
  0
BLOCK_RECORD
  5
1EEA
100
AcDbSymbolTableRecord
100
AcDbBlockTableRecord
  2
*X1
  0
BLOCK_RECORD
  5
20DB
100
AcDbSymbolTableRecord
100
AcDbBlockTableRecord
  2
*X2
  0
BLOCK_RECORD
  5
21A1
100
AcDbSymbolTableRecord
100
AcDbBlockTableRecord
  2
ESDINF_101
1001
CONTENTLONGBLOCKNAME
1000
Esdinf~1
1001
CONTENTBLOCKDESCRIPTION
1071
        0
1000
INFORMATION ONLY, NOT FOR MANUFACTURING
1001
CONTENTBLOCKICON
1071
        0
1004
280000002000000020000000010004000000000000020000000000000000000000000000000000000000000000008000008000000080800080000000800080008080000080808000C0C0C0000000FF0000FF000000FFFF00FF000000FF00FF00FFFF0000FFFFFF00FFFFFFFFFFFFFFFFFFFFFFFFFFFFFFFF
1004
FFFFFFFFFFFFFFFFFFFFFFFFFFFFFFFFFFFFFFFFFFFFFFFFFFFFFFFFFFFFFFFFFFFFFFFFFFFFFFFFFFFFFFFFFFFFFFFFFFFFFFFFFFFFFFFFFFFFFFFFFFFFFFFFFFFFFFFFFFFFFFFFFFFFFFFFFFFFFFFFFFFFFFFFFFFFFFFFFFFFFFFFFFFFFFFFFFFFFFFFFFFFFFFFFFFFFFFFFFFFFFFFFFFFFFFFFFFFFFFF
1004
FFFFFFFFFFFFFFFFFFFFFFFFFFFFFFFFFFFFFFFFFFFFFFFFFFFFFFFFFFFFFFFFFFFFFFFFFFFFFFFFFFFFFFFFFFFFFFFFFFFFFFFFFFFFFFFFFFFFFFFFFFFFFFFFFFFFFFFFFFFFFFFFFFFFFFFFFFFFFFFFFFFFFFFFFFFFFFFFFFFFFFFFFFFFFFFFFFFFFFFFFFFFFFFFFDDDDDDDDDDDDDDDDDDDDDDDDDDDDDDD
1004
FDDDDDDDDDDDDDDDDDDDDDDDDDDDDDDFFFFFFFFFFFFFFFFFFFFFFFFFFFFFFFFFFFFFFFFFFFFFFFFFFFFFFFFFFFFFFFFFFFFFFFFFFFFFFFFFFFFFFFFFFFFFFFFFFFFFFFFFFFFFFFFFFFFFFFFFFFFFFFFFFFFFFFFFFFFFFFFFFFFFFFFFFFFFFFFFFFFFFFFFFFFFFFFFFFFFFFFFFFFFFFFFFFFFFFFFFFFFFFFF
1004
FFFFFFFFFFFFFFFFFFFFFFFFFFFFFFFFFFFFFFFFFFFFFFFFFFFFFFFFFFFFFFFFFFFFFFFFFFFFFFFFFFFFFFFFFFFFFFFFFFFFFFFFFFFFFFFFFFFFFFFFFFFFFFFFFFFFFFFFFFFFFFFFFFFFFFFFFFFFFFFFFFFFFFFFFFFFFFFFFFFFFFFFFFFFFFFFFFFFFFFFFFFFFFFFFFFFFFFFFFFFFFFFFFFFFFFFFFFFFFFF
1004
FFFFFFFFFFFFFFFFFFFFFFFFFFFFFFFF
  0
BLOCK_RECORD
  5
21AA
100
AcDbSymbolTableRecord
100
AcDbBlockTableRecord
  2
COPYRIGHT
1001
CONTENTBLOCKDESCRIPTION
1071
        0
1000
copy right symbol for upper left hand corner of screen
1001
CONTENTBLOCKICON
1071
        0
1004
280000002000000020000000010004000000000000020000000000000000000000000000000000000000000000008000008000000080800080000000800080008080000080808000C0C0C0000000FF0000FF000000FFFF00FF000000FF00FF00FFFF0000FFFFFF00FFFFFFFFFFFFFFFFFFFFFFFFFFFFFFFF
1004
FFFFFFFFFFFFFFFFFFFFFFFFFFFFFFFFFFFFFFFFFFFFFFFFFFFFFFFFFFFFFFFFFFFFFFFFFFFFFFFFFFFFFFFFFFFFFFFFFFFFFFFFFFFFFFFFFFFFFFFFFFFFFFFFFFFFFFFFFFFFFFFFFFFFFFFFFFFFFFFFFFFFFFFFFFFFFFFFFFFFFFFFFFFFFFFFFFFFFFFFFFFFFFFFFFFFFFFFFFFFFFFFFFFFFFFFFFFFFFFF
1004
FFFFFFFFFFFFFFFFFFFFFFFFFFFFFFFFFFFFFFFFFFFFFFFFFFFFFFFFFFFFFFFFFFFFFFFFFFFFFFFFFFFFFFFFFFFFFFFFFFFFFFFFFFFFFFFFFFFFFFFFFFFFFFFFFFFFFFFFFFFFFFFFFFFFFFFFFFFFFFFFFFFFFFFFFFFFFFFFF777777777777777777F77777777777777777777777777777777777777777777
1004
FFFFFFFFFF77FFFFF7FFFFFFFFFFFFFFFFFFFFFFFFFFFFFFFFFFFFFFFFFFFFFFFFFFFFFFFFFFFFFFFFFFFFFFFFFFFFFFFFFFFFFFFFFFFFFFFFFFFFFFFFFFFFFFFFFFFFFFFFFFFFFFFFFFFFFFFFFFFFFFFFFFFFFFFFFFFFFFFFFFFFFFFFFFFFFFFFFFFFFFFFFFFFFFFFFFFFFFFFFFFFFFFFFFFFFFFFFFFFFF
1004
FFFFFFFFFFFFFFFFFFFFFFFFFFFFFFFFFFFFFFFFFFFFFFFFFFFFFFFFFFFFFFFFFFFFFFFFFFFFFFFFFFFFFFFFFFFFFFFFFFFFFFFFFFFFFFFFFFFFFFFFFFFFFFFFFFFFFFFFFFFFFFFFFFFFFFFFFFFFFFFFFFFFFFFFFFFFFFFFFFFFFFFFFFFFFFFFFFFFFFFFFFFFFFFFFFFFFFFFFFFFFFFFFFFFFFFFFFFFFFFF
1004
FFFFFFFFFFFFFFFFFFFFFFFFFFFFFFFF
  0
ENDTAB
  0
ENDSEC
  0
SECTION
  2
BLOCKS
  0
BLOCK
  5
2E
100
AcDbEntity
  8
0
100
AcDbBlockBegin
  2
*MODEL_SPACE
 70
     0
 10
0.0
 20
0.0
 30
0.0
  3
*MODEL_SPACE
  1

  0
ENDBLK
  5
2F
100
AcDbEntity
  8
0
100
AcDbBlockEnd
  0
BLOCK
  5
2C
100
AcDbEntity
 67
     1
  8
0
100
AcDbBlockBegin
  2
*PAPER_SPACE
 70
     0
 10
0.0
 20
0.0
 30
0.0
  3
*PAPER_SPACE
  1

  0
ENDBLK
  5
2D
100
AcDbEntity
 67
     1
  8
0
100
AcDbBlockEnd
  0
BLOCK
  5
1EB5
100
AcDbEntity
  8
0
100
AcDbBlockBegin
  2
*X0
 70
     1
 10
0.0
 20
0.0
 30
0.0
  3
*X0
  1

  0
LINE
  5
1EB7
100
AcDbEntity
  8
0
 62
     0
100
AcDbLine
 10
11.351441
 20
12.05413
 30
0.0
 11
11.34275
 21
12.062821
 31
0.0
  0
LINE
  5
1EB8
100
AcDbEntity
  8
0
 62
     0
100
AcDbLine
 10
11.35
 20
12.011376
 30
0.0
 11
11.298556
 21
12.062821
 31
0.0
  0
LINE
  5
1EB9
100
AcDbEntity
  8
0
 62
     0
100
AcDbLine
 10
11.305806
 20
12.011376
 30
0.0
 11
11.271441
 21
12.045741
 31
0.0
  0
LINE
  5
1EBA
100
AcDbEntity
  8
0
 62
     0
100
AcDbLine
 10
11.282439
 20
12.962821
 30
0.0
 11
11.271441
 21
12.973819
 31
0.0
  0
LINE
  5
1EBB
100
AcDbEntity
  8
0
 62
     0
100
AcDbLine
 10
11.326633
 20
12.962821
 30
0.0
 11
11.271441
 21
13.018013
 31
0.0
  0
LINE
  5
1EBC
100
AcDbEntity
  8
0
 62
     0
100
AcDbLine
 10
11.351441
 20
12.982207
 30
0.0
 11
11.314383
 21
13.019265
 31
0.0
  0
ENDBLK
  5
1EBD
100
AcDbEntity
  8
0
100
AcDbBlockEnd
  0
BLOCK
  5
1EEB
100
AcDbEntity
  8
0
100
AcDbBlockBegin
  2
*X1
 70
     1
 10
0.0
 20
0.0
 30
0.0
  3
*X1
  1

  0
LINE
  5
1EED
100
AcDbEntity
  8
0
 62
     0
100
AcDbLine
 10
11.065946
 20
13.029571
 30
0.0
 11
11.072186
 21
13.03581
 31
0.0
  0
LINE
  5
1EEE
100
AcDbEntity
  8
0
 62
     0
100
AcDbLine
 10
11.021752
 20
13.029571
 30
0.0
 11
11.072186
 21
13.080004
 31
0.0
  0
LINE
  5
1EEF
100
AcDbEntity
  8
0
 62
     0
100
AcDbLine
 10
10.977558
 20
13.029571
 30
0.0
 11
11.055808
 21
13.107821
 31
0.0
  0
LINE
  5
1EF0
100
AcDbEntity
  8
0
 62
     0
100
AcDbLine
 10
10.933364
 20
13.029571
 30
0.0
 11
11.011614
 21
13.107821
 31
0.0
  0
LINE
  5
1EF1
100
AcDbEntity
  8
0
 62
     0
100
AcDbLine
 10
10.88917
 20
13.029571
 30
0.0
 11
10.96742
 21
13.107821
 31
0.0
  0
LINE
  5
1EF2
100
AcDbEntity
  8
0
 62
     0
100
AcDbLine
 10
10.844975
 20
13.029571
 30
0.0
 11
10.923225
 21
13.107821
 31
0.0
  0
LINE
  5
1EF3
100
AcDbEntity
  8
0
 62
     0
100
AcDbLine
 10
10.800781
 20
13.029571
 30
0.0
 11
10.879031
 21
13.107821
 31
0.0
  0
LINE
  5
1EF4
100
AcDbEntity
  8
0
 62
     0
100
AcDbLine
 10
10.792186
 20
13.065169
 30
0.0
 11
10.834837
 21
13.107821
 31
0.0
  0
LINE
  5
1EF5
100
AcDbEntity
  8
0
 62
     0
100
AcDbLine
 10
10.792186
 20
11.960315
 30
0.0
 11
10.827941
 21
11.996071
 31
0.0
  0
LINE
  5
1EF6
100
AcDbEntity
  8
0
 62
     0
100
AcDbLine
 10
10.793886
 20
11.917821
 30
0.0
 11
10.872136
 21
11.996071
 31
0.0
  0
LINE
  5
1EF7
100
AcDbEntity
  8
0
 62
     0
100
AcDbLine
 10
10.83808
 20
11.917821
 30
0.0
 11
10.91633
 21
11.996071
 31
0.0
  0
LINE
  5
1EF8
100
AcDbEntity
  8
0
 62
     0
100
AcDbLine
 10
10.882274
 20
11.917821
 30
0.0
 11
10.960524
 21
11.996071
 31
0.0
  0
LINE
  5
1EF9
100
AcDbEntity
  8
0
 62
     0
100
AcDbLine
 10
10.926468
 20
11.917821
 30
0.0
 11
11.004718
 21
11.996071
 31
0.0
  0
LINE
  5
1EFA
100
AcDbEntity
  8
0
 62
     0
100
AcDbLine
 10
10.970662
 20
11.917821
 30
0.0
 11
11.048912
 21
11.996071
 31
0.0
  0
LINE
  5
1EFB
100
AcDbEntity
  8
0
 62
     0
100
AcDbLine
 10
11.014857
 20
11.917821
 30
0.0
 11
11.072186
 21
11.97515
 31
0.0
  0
LINE
  5
1EFC
100
AcDbEntity
  8
0
 62
     0
100
AcDbLine
 10
11.059051
 20
11.917821
 30
0.0
 11
11.072186
 21
11.930956
 31
0.0
  0
ENDBLK
  5
1EFD
100
AcDbEntity
  8
0
100
AcDbBlockEnd
  0
BLOCK
  5
20DC
100
AcDbEntity
  8
0
100
AcDbBlockBegin
  2
*X2
 70
     1
 10
0.0
 20
0.0
 30
0.0
  3
*X2
  1

  0
LINE
  5
20DE
100
AcDbEntity
  8
0
 62
     0
100
AcDbLine
 10
12.115587
 20
12.507821
 30
0.0
 11
12.115587
 21
12.507821
 31
0.0
  0
LINE
  5
20DF
100
AcDbEntity
  8
0
 62
     0
100
AcDbLine
 10
12.126524
 20
12.507821
 30
0.0
 11
12.126524
 21
12.507821
 31
0.0
  0
LINE
  5
20E0
100
AcDbEntity
  8
0
 62
     0
100
AcDbLine
 10
12.137462
 20
12.507821
 30
0.0
 11
12.137462
 21
12.507821
 31
0.0
  0
LINE
  5
20E1
100
AcDbEntity
  8
0
 62
     0
100
AcDbLine
 10
12.148399
 20
12.507821
 30
0.0
 11
12.148399
 21
12.507821
 31
0.0
  0
LINE
  5
20E2
100
AcDbEntity
  8
0
 62
     0
100
AcDbLine
 10
12.159337
 20
12.507821
 30
0.0
 11
12.159337
 21
12.507821
 31
0.0
  0
LINE
  5
20E3
100
AcDbEntity
  8
0
 62
     0
100
AcDbLine
 10
12.170274
 20
12.507821
 30
0.0
 11
12.170274
 21
12.507821
 31
0.0
  0
LINE
  5
20E4
100
AcDbEntity
  8
0
 62
     0
100
AcDbLine
 10
12.181212
 20
12.507821
 30
0.0
 11
12.181212
 21
12.507821
 31
0.0
  0
LINE
  5
20E5
100
AcDbEntity
  8
0
 62
     0
100
AcDbLine
 10
12.192149
 20
12.507821
 30
0.0
 11
12.192149
 21
12.507821
 31
0.0
  0
LINE
  5
20E6
100
AcDbEntity
  8
0
 62
     0
100
AcDbLine
 10
12.203087
 20
12.507821
 30
0.0
 11
12.203087
 21
12.507821
 31
0.0
  0
LINE
  5
20E7
100
AcDbEntity
  8
0
 62
     0
100
AcDbLine
 10
12.214024
 20
12.507821
 30
0.0
 11
12.214024
 21
12.507821
 31
0.0
  0
LINE
  5
20E8
100
AcDbEntity
  8
0
 62
     0
100
AcDbLine
 10
12.224962
 20
12.507821
 30
0.0
 11
12.224962
 21
12.507821
 31
0.0
  0
LINE
  5
20E9
100
AcDbEntity
  8
0
 62
     0
100
AcDbLine
 10
12.235899
 20
12.507821
 30
0.0
 11
12.235899
 21
12.507821
 31
0.0
  0
LINE
  5
20EA
100
AcDbEntity
  8
0
 62
     0
100
AcDbLine
 10
12.246837
 20
12.507821
 30
0.0
 11
12.246837
 21
12.507821
 31
0.0
  0
LINE
  5
20EB
100
AcDbEntity
  8
0
 62
     0
100
AcDbLine
 10
12.110118
 20
12.518758
 30
0.0
 11
12.110118
 21
12.518758
 31
0.0
  0
LINE
  5
20EC
100
AcDbEntity
  8
0
 62
     0
100
AcDbLine
 10
12.121055
 20
12.518758
 30
0.0
 11
12.121055
 21
12.518758
 31
0.0
  0
LINE
  5
20ED
100
AcDbEntity
  8
0
 62
     0
100
AcDbLine
 10
12.131993
 20
12.518758
 30
0.0
 11
12.131993
 21
12.518758
 31
0.0
  0
LINE
  5
20EE
100
AcDbEntity
  8
0
 62
     0
100
AcDbLine
 10
12.14293
 20
12.518758
 30
0.0
 11
12.14293
 21
12.518758
 31
0.0
  0
LINE
  5
20EF
100
AcDbEntity
  8
0
 62
     0
100
AcDbLine
 10
12.153868
 20
12.518758
 30
0.0
 11
12.153868
 21
12.518758
 31
0.0
  0
LINE
  5
20F0
100
AcDbEntity
  8
0
 62
     0
100
AcDbLine
 10
12.164805
 20
12.518758
 30
0.0
 11
12.164805
 21
12.518758
 31
0.0
  0
LINE
  5
20F1
100
AcDbEntity
  8
0
 62
     0
100
AcDbLine
 10
12.175743
 20
12.518758
 30
0.0
 11
12.175743
 21
12.518758
 31
0.0
  0
LINE
  5
20F2
100
AcDbEntity
  8
0
 62
     0
100
AcDbLine
 10
12.18668
 20
12.518758
 30
0.0
 11
12.18668
 21
12.518758
 31
0.0
  0
LINE
  5
20F3
100
AcDbEntity
  8
0
 62
     0
100
AcDbLine
 10
12.197618
 20
12.518758
 30
0.0
 11
12.197618
 21
12.518758
 31
0.0
  0
LINE
  5
20F4
100
AcDbEntity
  8
0
 62
     0
100
AcDbLine
 10
12.208555
 20
12.518758
 30
0.0
 11
12.208555
 21
12.518758
 31
0.0
  0
LINE
  5
20F5
100
AcDbEntity
  8
0
 62
     0
100
AcDbLine
 10
12.219493
 20
12.518758
 30
0.0
 11
12.219493
 21
12.518758
 31
0.0
  0
LINE
  5
20F6
100
AcDbEntity
  8
0
 62
     0
100
AcDbLine
 10
12.23043
 20
12.518758
 30
0.0
 11
12.23043
 21
12.518758
 31
0.0
  0
LINE
  5
20F7
100
AcDbEntity
  8
0
 62
     0
100
AcDbLine
 10
12.241368
 20
12.518758
 30
0.0
 11
12.241368
 21
12.518758
 31
0.0
  0
LINE
  5
20F8
100
AcDbEntity
  8
0
 62
     0
100
AcDbLine
 10
12.115587
 20
12.529696
 30
0.0
 11
12.115587
 21
12.529696
 31
0.0
  0
LINE
  5
20F9
100
AcDbEntity
  8
0
 62
     0
100
AcDbLine
 10
12.126524
 20
12.529696
 30
0.0
 11
12.126524
 21
12.529696
 31
0.0
  0
LINE
  5
20FA
100
AcDbEntity
  8
0
 62
     0
100
AcDbLine
 10
12.137462
 20
12.529696
 30
0.0
 11
12.137462
 21
12.529696
 31
0.0
  0
LINE
  5
20FB
100
AcDbEntity
  8
0
 62
     0
100
AcDbLine
 10
12.148399
 20
12.529696
 30
0.0
 11
12.148399
 21
12.529696
 31
0.0
  0
LINE
  5
20FC
100
AcDbEntity
  8
0
 62
     0
100
AcDbLine
 10
12.159337
 20
12.529696
 30
0.0
 11
12.159337
 21
12.529696
 31
0.0
  0
LINE
  5
20FD
100
AcDbEntity
  8
0
 62
     0
100
AcDbLine
 10
12.170274
 20
12.529696
 30
0.0
 11
12.170274
 21
12.529696
 31
0.0
  0
LINE
  5
20FE
100
AcDbEntity
  8
0
 62
     0
100
AcDbLine
 10
12.181212
 20
12.529696
 30
0.0
 11
12.181212
 21
12.529696
 31
0.0
  0
LINE
  5
20FF
100
AcDbEntity
  8
0
 62
     0
100
AcDbLine
 10
12.192149
 20
12.529696
 30
0.0
 11
12.192149
 21
12.529696
 31
0.0
  0
LINE
  5
2100
100
AcDbEntity
  8
0
 62
     0
100
AcDbLine
 10
12.203087
 20
12.529696
 30
0.0
 11
12.203087
 21
12.529696
 31
0.0
  0
LINE
  5
2101
100
AcDbEntity
  8
0
 62
     0
100
AcDbLine
 10
12.214024
 20
12.529696
 30
0.0
 11
12.214024
 21
12.529696
 31
0.0
  0
LINE
  5
2102
100
AcDbEntity
  8
0
 62
     0
100
AcDbLine
 10
12.224962
 20
12.529696
 30
0.0
 11
12.224962
 21
12.529696
 31
0.0
  0
LINE
  5
2103
100
AcDbEntity
  8
0
 62
     0
100
AcDbLine
 10
12.235899
 20
12.529696
 30
0.0
 11
12.235899
 21
12.529696
 31
0.0
  0
LINE
  5
2104
100
AcDbEntity
  8
0
 62
     0
100
AcDbLine
 10
12.246837
 20
12.529696
 30
0.0
 11
12.246837
 21
12.529696
 31
0.0
  0
LINE
  5
2105
100
AcDbEntity
  8
0
 62
     0
100
AcDbLine
 10
12.110118
 20
12.540633
 30
0.0
 11
12.110118
 21
12.540633
 31
0.0
  0
LINE
  5
2106
100
AcDbEntity
  8
0
 62
     0
100
AcDbLine
 10
12.121055
 20
12.540633
 30
0.0
 11
12.121055
 21
12.540633
 31
0.0
  0
LINE
  5
2107
100
AcDbEntity
  8
0
 62
     0
100
AcDbLine
 10
12.131993
 20
12.540633
 30
0.0
 11
12.131993
 21
12.540633
 31
0.0
  0
LINE
  5
2108
100
AcDbEntity
  8
0
 62
     0
100
AcDbLine
 10
12.14293
 20
12.540633
 30
0.0
 11
12.14293
 21
12.540633
 31
0.0
  0
LINE
  5
2109
100
AcDbEntity
  8
0
 62
     0
100
AcDbLine
 10
12.153868
 20
12.540633
 30
0.0
 11
12.153868
 21
12.540633
 31
0.0
  0
LINE
  5
210A
100
AcDbEntity
  8
0
 62
     0
100
AcDbLine
 10
12.164805
 20
12.540633
 30
0.0
 11
12.164805
 21
12.540633
 31
0.0
  0
LINE
  5
210B
100
AcDbEntity
  8
0
 62
     0
100
AcDbLine
 10
12.175743
 20
12.540633
 30
0.0
 11
12.175743
 21
12.540633
 31
0.0
  0
LINE
  5
210C
100
AcDbEntity
  8
0
 62
     0
100
AcDbLine
 10
12.18668
 20
12.540633
 30
0.0
 11
12.18668
 21
12.540633
 31
0.0
  0
LINE
  5
210D
100
AcDbEntity
  8
0
 62
     0
100
AcDbLine
 10
12.197618
 20
12.540633
 30
0.0
 11
12.197618
 21
12.540633
 31
0.0
  0
LINE
  5
210E
100
AcDbEntity
  8
0
 62
     0
100
AcDbLine
 10
12.208555
 20
12.540633
 30
0.0
 11
12.208555
 21
12.540633
 31
0.0
  0
LINE
  5
210F
100
AcDbEntity
  8
0
 62
     0
100
AcDbLine
 10
12.219493
 20
12.540633
 30
0.0
 11
12.219493
 21
12.540633
 31
0.0
  0
LINE
  5
2110
100
AcDbEntity
  8
0
 62
     0
100
AcDbLine
 10
12.23043
 20
12.540633
 30
0.0
 11
12.23043
 21
12.540633
 31
0.0
  0
LINE
  5
2111
100
AcDbEntity
  8
0
 62
     0
100
AcDbLine
 10
12.241368
 20
12.540633
 30
0.0
 11
12.241368
 21
12.540633
 31
0.0
  0
LINE
  5
2112
100
AcDbEntity
  8
0
 62
     0
100
AcDbLine
 10
12.115587
 20
12.551571
 30
0.0
 11
12.115587
 21
12.551571
 31
0.0
  0
LINE
  5
2113
100
AcDbEntity
  8
0
 62
     0
100
AcDbLine
 10
12.126524
 20
12.551571
 30
0.0
 11
12.126524
 21
12.551571
 31
0.0
  0
LINE
  5
2114
100
AcDbEntity
  8
0
 62
     0
100
AcDbLine
 10
12.137462
 20
12.551571
 30
0.0
 11
12.137462
 21
12.551571
 31
0.0
  0
LINE
  5
2115
100
AcDbEntity
  8
0
 62
     0
100
AcDbLine
 10
12.148399
 20
12.551571
 30
0.0
 11
12.148399
 21
12.551571
 31
0.0
  0
LINE
  5
2116
100
AcDbEntity
  8
0
 62
     0
100
AcDbLine
 10
12.159337
 20
12.551571
 30
0.0
 11
12.159337
 21
12.551571
 31
0.0
  0
LINE
  5
2117
100
AcDbEntity
  8
0
 62
     0
100
AcDbLine
 10
12.170274
 20
12.551571
 30
0.0
 11
12.170274
 21
12.551571
 31
0.0
  0
LINE
  5
2118
100
AcDbEntity
  8
0
 62
     0
100
AcDbLine
 10
12.181212
 20
12.551571
 30
0.0
 11
12.181212
 21
12.551571
 31
0.0
  0
LINE
  5
2119
100
AcDbEntity
  8
0
 62
     0
100
AcDbLine
 10
12.192149
 20
12.551571
 30
0.0
 11
12.192149
 21
12.551571
 31
0.0
  0
LINE
  5
211A
100
AcDbEntity
  8
0
 62
     0
100
AcDbLine
 10
12.203087
 20
12.551571
 30
0.0
 11
12.203087
 21
12.551571
 31
0.0
  0
LINE
  5
211B
100
AcDbEntity
  8
0
 62
     0
100
AcDbLine
 10
12.214024
 20
12.551571
 30
0.0
 11
12.214024
 21
12.551571
 31
0.0
  0
LINE
  5
211C
100
AcDbEntity
  8
0
 62
     0
100
AcDbLine
 10
12.224962
 20
12.551571
 30
0.0
 11
12.224962
 21
12.551571
 31
0.0
  0
LINE
  5
211D
100
AcDbEntity
  8
0
 62
     0
100
AcDbLine
 10
12.235899
 20
12.551571
 30
0.0
 11
12.235899
 21
12.551571
 31
0.0
  0
LINE
  5
211E
100
AcDbEntity
  8
0
 62
     0
100
AcDbLine
 10
12.246837
 20
12.551571
 30
0.0
 11
12.246837
 21
12.551571
 31
0.0
  0
LINE
  5
211F
100
AcDbEntity
  8
0
 62
     0
100
AcDbLine
 10
12.110118
 20
12.562508
 30
0.0
 11
12.110118
 21
12.562508
 31
0.0
  0
LINE
  5
2120
100
AcDbEntity
  8
0
 62
     0
100
AcDbLine
 10
12.121055
 20
12.562508
 30
0.0
 11
12.121055
 21
12.562508
 31
0.0
  0
LINE
  5
2121
100
AcDbEntity
  8
0
 62
     0
100
AcDbLine
 10
12.131993
 20
12.562508
 30
0.0
 11
12.131993
 21
12.562508
 31
0.0
  0
LINE
  5
2122
100
AcDbEntity
  8
0
 62
     0
100
AcDbLine
 10
12.14293
 20
12.562508
 30
0.0
 11
12.14293
 21
12.562508
 31
0.0
  0
LINE
  5
2123
100
AcDbEntity
  8
0
 62
     0
100
AcDbLine
 10
12.153868
 20
12.562508
 30
0.0
 11
12.153868
 21
12.562508
 31
0.0
  0
LINE
  5
2124
100
AcDbEntity
  8
0
 62
     0
100
AcDbLine
 10
12.164805
 20
12.562508
 30
0.0
 11
12.164805
 21
12.562508
 31
0.0
  0
LINE
  5
2125
100
AcDbEntity
  8
0
 62
     0
100
AcDbLine
 10
12.175743
 20
12.562508
 30
0.0
 11
12.175743
 21
12.562508
 31
0.0
  0
LINE
  5
2126
100
AcDbEntity
  8
0
 62
     0
100
AcDbLine
 10
12.18668
 20
12.562508
 30
0.0
 11
12.18668
 21
12.562508
 31
0.0
  0
LINE
  5
2127
100
AcDbEntity
  8
0
 62
     0
100
AcDbLine
 10
12.197618
 20
12.562508
 30
0.0
 11
12.197618
 21
12.562508
 31
0.0
  0
LINE
  5
2128
100
AcDbEntity
  8
0
 62
     0
100
AcDbLine
 10
12.208555
 20
12.562508
 30
0.0
 11
12.208555
 21
12.562508
 31
0.0
  0
LINE
  5
2129
100
AcDbEntity
  8
0
 62
     0
100
AcDbLine
 10
12.219493
 20
12.562508
 30
0.0
 11
12.219493
 21
12.562508
 31
0.0
  0
LINE
  5
212A
100
AcDbEntity
  8
0
 62
     0
100
AcDbLine
 10
12.23043
 20
12.562508
 30
0.0
 11
12.23043
 21
12.562508
 31
0.0
  0
LINE
  5
212B
100
AcDbEntity
  8
0
 62
     0
100
AcDbLine
 10
12.241368
 20
12.562508
 30
0.0
 11
12.241368
 21
12.562508
 31
0.0
  0
LINE
  5
212C
100
AcDbEntity
  8
0
 62
     0
100
AcDbLine
 10
12.115587
 20
12.573446
 30
0.0
 11
12.115587
 21
12.573446
 31
0.0
  0
LINE
  5
212D
100
AcDbEntity
  8
0
 62
     0
100
AcDbLine
 10
12.126524
 20
12.573446
 30
0.0
 11
12.126524
 21
12.573446
 31
0.0
  0
LINE
  5
212E
100
AcDbEntity
  8
0
 62
     0
100
AcDbLine
 10
12.137462
 20
12.573446
 30
0.0
 11
12.137462
 21
12.573446
 31
0.0
  0
LINE
  5
212F
100
AcDbEntity
  8
0
 62
     0
100
AcDbLine
 10
12.148399
 20
12.573446
 30
0.0
 11
12.148399
 21
12.573446
 31
0.0
  0
LINE
  5
2130
100
AcDbEntity
  8
0
 62
     0
100
AcDbLine
 10
12.159337
 20
12.573446
 30
0.0
 11
12.159337
 21
12.573446
 31
0.0
  0
LINE
  5
2131
100
AcDbEntity
  8
0
 62
     0
100
AcDbLine
 10
12.170274
 20
12.573446
 30
0.0
 11
12.170274
 21
12.573446
 31
0.0
  0
LINE
  5
2132
100
AcDbEntity
  8
0
 62
     0
100
AcDbLine
 10
12.181212
 20
12.573446
 30
0.0
 11
12.181212
 21
12.573446
 31
0.0
  0
LINE
  5
2133
100
AcDbEntity
  8
0
 62
     0
100
AcDbLine
 10
12.192149
 20
12.573446
 30
0.0
 11
12.192149
 21
12.573446
 31
0.0
  0
LINE
  5
2134
100
AcDbEntity
  8
0
 62
     0
100
AcDbLine
 10
12.203087
 20
12.573446
 30
0.0
 11
12.203087
 21
12.573446
 31
0.0
  0
LINE
  5
2135
100
AcDbEntity
  8
0
 62
     0
100
AcDbLine
 10
12.214024
 20
12.573446
 30
0.0
 11
12.214024
 21
12.573446
 31
0.0
  0
LINE
  5
2136
100
AcDbEntity
  8
0
 62
     0
100
AcDbLine
 10
12.224962
 20
12.573446
 30
0.0
 11
12.224962
 21
12.573446
 31
0.0
  0
LINE
  5
2137
100
AcDbEntity
  8
0
 62
     0
100
AcDbLine
 10
12.235899
 20
12.573446
 30
0.0
 11
12.235899
 21
12.573446
 31
0.0
  0
LINE
  5
2138
100
AcDbEntity
  8
0
 62
     0
100
AcDbLine
 10
12.246837
 20
12.573446
 30
0.0
 11
12.246837
 21
12.573446
 31
0.0
  0
LINE
  5
2139
100
AcDbEntity
  8
0
 62
     0
100
AcDbLine
 10
12.110118
 20
12.496883
 30
0.0
 11
12.110118
 21
12.496883
 31
0.0
  0
LINE
  5
213A
100
AcDbEntity
  8
0
 62
     0
100
AcDbLine
 10
12.121055
 20
12.496883
 30
0.0
 11
12.121055
 21
12.496883
 31
0.0
  0
LINE
  5
213B
100
AcDbEntity
  8
0
 62
     0
100
AcDbLine
 10
12.131993
 20
12.496883
 30
0.0
 11
12.131993
 21
12.496883
 31
0.0
  0
LINE
  5
213C
100
AcDbEntity
  8
0
 62
     0
100
AcDbLine
 10
12.14293
 20
12.496883
 30
0.0
 11
12.14293
 21
12.496883
 31
0.0
  0
LINE
  5
213D
100
AcDbEntity
  8
0
 62
     0
100
AcDbLine
 10
12.153868
 20
12.496883
 30
0.0
 11
12.153868
 21
12.496883
 31
0.0
  0
LINE
  5
213E
100
AcDbEntity
  8
0
 62
     0
100
AcDbLine
 10
12.164805
 20
12.496883
 30
0.0
 11
12.164805
 21
12.496883
 31
0.0
  0
LINE
  5
213F
100
AcDbEntity
  8
0
 62
     0
100
AcDbLine
 10
12.175743
 20
12.496883
 30
0.0
 11
12.175743
 21
12.496883
 31
0.0
  0
LINE
  5
2140
100
AcDbEntity
  8
0
 62
     0
100
AcDbLine
 10
12.18668
 20
12.496883
 30
0.0
 11
12.18668
 21
12.496883
 31
0.0
  0
LINE
  5
2141
100
AcDbEntity
  8
0
 62
     0
100
AcDbLine
 10
12.197618
 20
12.496883
 30
0.0
 11
12.197618
 21
12.496883
 31
0.0
  0
LINE
  5
2142
100
AcDbEntity
  8
0
 62
     0
100
AcDbLine
 10
12.208555
 20
12.496883
 30
0.0
 11
12.208555
 21
12.496883
 31
0.0
  0
LINE
  5
2143
100
AcDbEntity
  8
0
 62
     0
100
AcDbLine
 10
12.219493
 20
12.496883
 30
0.0
 11
12.219493
 21
12.496883
 31
0.0
  0
LINE
  5
2144
100
AcDbEntity
  8
0
 62
     0
100
AcDbLine
 10
12.23043
 20
12.496883
 30
0.0
 11
12.23043
 21
12.496883
 31
0.0
  0
LINE
  5
2145
100
AcDbEntity
  8
0
 62
     0
100
AcDbLine
 10
12.241368
 20
12.496883
 30
0.0
 11
12.241368
 21
12.496883
 31
0.0
  0
LINE
  5
2146
100
AcDbEntity
  8
0
 62
     0
100
AcDbLine
 10
12.115587
 20
12.485946
 30
0.0
 11
12.115587
 21
12.485946
 31
0.0
  0
LINE
  5
2147
100
AcDbEntity
  8
0
 62
     0
100
AcDbLine
 10
12.126524
 20
12.485946
 30
0.0
 11
12.126524
 21
12.485946
 31
0.0
  0
LINE
  5
2148
100
AcDbEntity
  8
0
 62
     0
100
AcDbLine
 10
12.137462
 20
12.485946
 30
0.0
 11
12.137462
 21
12.485946
 31
0.0
  0
LINE
  5
2149
100
AcDbEntity
  8
0
 62
     0
100
AcDbLine
 10
12.148399
 20
12.485946
 30
0.0
 11
12.148399
 21
12.485946
 31
0.0
  0
LINE
  5
214A
100
AcDbEntity
  8
0
 62
     0
100
AcDbLine
 10
12.159337
 20
12.485946
 30
0.0
 11
12.159337
 21
12.485946
 31
0.0
  0
LINE
  5
214B
100
AcDbEntity
  8
0
 62
     0
100
AcDbLine
 10
12.170274
 20
12.485946
 30
0.0
 11
12.170274
 21
12.485946
 31
0.0
  0
LINE
  5
214C
100
AcDbEntity
  8
0
 62
     0
100
AcDbLine
 10
12.181212
 20
12.485946
 30
0.0
 11
12.181212
 21
12.485946
 31
0.0
  0
LINE
  5
214D
100
AcDbEntity
  8
0
 62
     0
100
AcDbLine
 10
12.192149
 20
12.485946
 30
0.0
 11
12.192149
 21
12.485946
 31
0.0
  0
LINE
  5
214E
100
AcDbEntity
  8
0
 62
     0
100
AcDbLine
 10
12.203087
 20
12.485946
 30
0.0
 11
12.203087
 21
12.485946
 31
0.0
  0
LINE
  5
214F
100
AcDbEntity
  8
0
 62
     0
100
AcDbLine
 10
12.214024
 20
12.485946
 30
0.0
 11
12.214024
 21
12.485946
 31
0.0
  0
LINE
  5
2150
100
AcDbEntity
  8
0
 62
     0
100
AcDbLine
 10
12.224962
 20
12.485946
 30
0.0
 11
12.224962
 21
12.485946
 31
0.0
  0
LINE
  5
2151
100
AcDbEntity
  8
0
 62
     0
100
AcDbLine
 10
12.235899
 20
12.485946
 30
0.0
 11
12.235899
 21
12.485946
 31
0.0
  0
LINE
  5
2152
100
AcDbEntity
  8
0
 62
     0
100
AcDbLine
 10
12.246837
 20
12.485946
 30
0.0
 11
12.246837
 21
12.485946
 31
0.0
  0
LINE
  5
2153
100
AcDbEntity
  8
0
 62
     0
100
AcDbLine
 10
12.110118
 20
12.475008
 30
0.0
 11
12.110118
 21
12.475008
 31
0.0
  0
LINE
  5
2154
100
AcDbEntity
  8
0
 62
     0
100
AcDbLine
 10
12.121055
 20
12.475008
 30
0.0
 11
12.121055
 21
12.475008
 31
0.0
  0
LINE
  5
2155
100
AcDbEntity
  8
0
 62
     0
100
AcDbLine
 10
12.131993
 20
12.475008
 30
0.0
 11
12.131993
 21
12.475008
 31
0.0
  0
LINE
  5
2156
100
AcDbEntity
  8
0
 62
     0
100
AcDbLine
 10
12.14293
 20
12.475008
 30
0.0
 11
12.14293
 21
12.475008
 31
0.0
  0
LINE
  5
2157
100
AcDbEntity
  8
0
 62
     0
100
AcDbLine
 10
12.153868
 20
12.475008
 30
0.0
 11
12.153868
 21
12.475008
 31
0.0
  0
LINE
  5
2158
100
AcDbEntity
  8
0
 62
     0
100
AcDbLine
 10
12.164805
 20
12.475008
 30
0.0
 11
12.164805
 21
12.475008
 31
0.0
  0
LINE
  5
2159
100
AcDbEntity
  8
0
 62
     0
100
AcDbLine
 10
12.175743
 20
12.475008
 30
0.0
 11
12.175743
 21
12.475008
 31
0.0
  0
LINE
  5
215A
100
AcDbEntity
  8
0
 62
     0
100
AcDbLine
 10
12.18668
 20
12.475008
 30
0.0
 11
12.18668
 21
12.475008
 31
0.0
  0
LINE
  5
215B
100
AcDbEntity
  8
0
 62
     0
100
AcDbLine
 10
12.197618
 20
12.475008
 30
0.0
 11
12.197618
 21
12.475008
 31
0.0
  0
LINE
  5
215C
100
AcDbEntity
  8
0
 62
     0
100
AcDbLine
 10
12.208555
 20
12.475008
 30
0.0
 11
12.208555
 21
12.475008
 31
0.0
  0
LINE
  5
215D
100
AcDbEntity
  8
0
 62
     0
100
AcDbLine
 10
12.219493
 20
12.475008
 30
0.0
 11
12.219493
 21
12.475008
 31
0.0
  0
LINE
  5
215E
100
AcDbEntity
  8
0
 62
     0
100
AcDbLine
 10
12.23043
 20
12.475008
 30
0.0
 11
12.23043
 21
12.475008
 31
0.0
  0
LINE
  5
215F
100
AcDbEntity
  8
0
 62
     0
100
AcDbLine
 10
12.241368
 20
12.475008
 30
0.0
 11
12.241368
 21
12.475008
 31
0.0
  0
LINE
  5
2160
100
AcDbEntity
  8
0
 62
     0
100
AcDbLine
 10
12.115587
 20
12.464071
 30
0.0
 11
12.115587
 21
12.464071
 31
0.0
  0
LINE
  5
2161
100
AcDbEntity
  8
0
 62
     0
100
AcDbLine
 10
12.126524
 20
12.464071
 30
0.0
 11
12.126524
 21
12.464071
 31
0.0
  0
LINE
  5
2162
100
AcDbEntity
  8
0
 62
     0
100
AcDbLine
 10
12.137462
 20
12.464071
 30
0.0
 11
12.137462
 21
12.464071
 31
0.0
  0
LINE
  5
2163
100
AcDbEntity
  8
0
 62
     0
100
AcDbLine
 10
12.148399
 20
12.464071
 30
0.0
 11
12.148399
 21
12.464071
 31
0.0
  0
LINE
  5
2164
100
AcDbEntity
  8
0
 62
     0
100
AcDbLine
 10
12.159337
 20
12.464071
 30
0.0
 11
12.159337
 21
12.464071
 31
0.0
  0
LINE
  5
2165
100
AcDbEntity
  8
0
 62
     0
100
AcDbLine
 10
12.170274
 20
12.464071
 30
0.0
 11
12.170274
 21
12.464071
 31
0.0
  0
LINE
  5
2166
100
AcDbEntity
  8
0
 62
     0
100
AcDbLine
 10
12.181212
 20
12.464071
 30
0.0
 11
12.181212
 21
12.464071
 31
0.0
  0
LINE
  5
2167
100
AcDbEntity
  8
0
 62
     0
100
AcDbLine
 10
12.192149
 20
12.464071
 30
0.0
 11
12.192149
 21
12.464071
 31
0.0
  0
LINE
  5
2168
100
AcDbEntity
  8
0
 62
     0
100
AcDbLine
 10
12.203087
 20
12.464071
 30
0.0
 11
12.203087
 21
12.464071
 31
0.0
  0
LINE
  5
2169
100
AcDbEntity
  8
0
 62
     0
100
AcDbLine
 10
12.214024
 20
12.464071
 30
0.0
 11
12.214024
 21
12.464071
 31
0.0
  0
LINE
  5
216A
100
AcDbEntity
  8
0
 62
     0
100
AcDbLine
 10
12.224962
 20
12.464071
 30
0.0
 11
12.224962
 21
12.464071
 31
0.0
  0
LINE
  5
216B
100
AcDbEntity
  8
0
 62
     0
100
AcDbLine
 10
12.235899
 20
12.464071
 30
0.0
 11
12.235899
 21
12.464071
 31
0.0
  0
LINE
  5
216C
100
AcDbEntity
  8
0
 62
     0
100
AcDbLine
 10
12.246837
 20
12.464071
 30
0.0
 11
12.246837
 21
12.464071
 31
0.0
  0
LINE
  5
216D
100
AcDbEntity
  8
0
 62
     0
100
AcDbLine
 10
12.110118
 20
12.453133
 30
0.0
 11
12.110118
 21
12.453133
 31
0.0
  0
LINE
  5
216E
100
AcDbEntity
  8
0
 62
     0
100
AcDbLine
 10
12.121055
 20
12.453133
 30
0.0
 11
12.121055
 21
12.453133
 31
0.0
  0
LINE
  5
216F
100
AcDbEntity
  8
0
 62
     0
100
AcDbLine
 10
12.131993
 20
12.453133
 30
0.0
 11
12.131993
 21
12.453133
 31
0.0
  0
LINE
  5
2170
100
AcDbEntity
  8
0
 62
     0
100
AcDbLine
 10
12.14293
 20
12.453133
 30
0.0
 11
12.14293
 21
12.453133
 31
0.0
  0
LINE
  5
2171
100
AcDbEntity
  8
0
 62
     0
100
AcDbLine
 10
12.153868
 20
12.453133
 30
0.0
 11
12.153868
 21
12.453133
 31
0.0
  0
LINE
  5
2172
100
AcDbEntity
  8
0
 62
     0
100
AcDbLine
 10
12.164805
 20
12.453133
 30
0.0
 11
12.164805
 21
12.453133
 31
0.0
  0
LINE
  5
2173
100
AcDbEntity
  8
0
 62
     0
100
AcDbLine
 10
12.175743
 20
12.453133
 30
0.0
 11
12.175743
 21
12.453133
 31
0.0
  0
LINE
  5
2174
100
AcDbEntity
  8
0
 62
     0
100
AcDbLine
 10
12.18668
 20
12.453133
 30
0.0
 11
12.18668
 21
12.453133
 31
0.0
  0
LINE
  5
2175
100
AcDbEntity
  8
0
 62
     0
100
AcDbLine
 10
12.197618
 20
12.453133
 30
0.0
 11
12.197618
 21
12.453133
 31
0.0
  0
LINE
  5
2176
100
AcDbEntity
  8
0
 62
     0
100
AcDbLine
 10
12.208555
 20
12.453133
 30
0.0
 11
12.208555
 21
12.453133
 31
0.0
  0
LINE
  5
2177
100
AcDbEntity
  8
0
 62
     0
100
AcDbLine
 10
12.219493
 20
12.453133
 30
0.0
 11
12.219493
 21
12.453133
 31
0.0
  0
LINE
  5
2178
100
AcDbEntity
  8
0
 62
     0
100
AcDbLine
 10
12.23043
 20
12.453133
 30
0.0
 11
12.23043
 21
12.453133
 31
0.0
  0
LINE
  5
2179
100
AcDbEntity
  8
0
 62
     0
100
AcDbLine
 10
12.241368
 20
12.453133
 30
0.0
 11
12.241368
 21
12.453133
 31
0.0
  0
LINE
  5
217A
100
AcDbEntity
  8
0
 62
     0
100
AcDbLine
 10
12.115587
 20
12.442196
 30
0.0
 11
12.115587
 21
12.442196
 31
0.0
  0
LINE
  5
217B
100
AcDbEntity
  8
0
 62
     0
100
AcDbLine
 10
12.126524
 20
12.442196
 30
0.0
 11
12.126524
 21
12.442196
 31
0.0
  0
LINE
  5
217C
100
AcDbEntity
  8
0
 62
     0
100
AcDbLine
 10
12.137462
 20
12.442196
 30
0.0
 11
12.137462
 21
12.442196
 31
0.0
  0
LINE
  5
217D
100
AcDbEntity
  8
0
 62
     0
100
AcDbLine
 10
12.148399
 20
12.442196
 30
0.0
 11
12.148399
 21
12.442196
 31
0.0
  0
LINE
  5
217E
100
AcDbEntity
  8
0
 62
     0
100
AcDbLine
 10
12.159337
 20
12.442196
 30
0.0
 11
12.159337
 21
12.442196
 31
0.0
  0
LINE
  5
217F
100
AcDbEntity
  8
0
 62
     0
100
AcDbLine
 10
12.170274
 20
12.442196
 30
0.0
 11
12.170274
 21
12.442196
 31
0.0
  0
LINE
  5
2180
100
AcDbEntity
  8
0
 62
     0
100
AcDbLine
 10
12.181212
 20
12.442196
 30
0.0
 11
12.181212
 21
12.442196
 31
0.0
  0
LINE
  5
2181
100
AcDbEntity
  8
0
 62
     0
100
AcDbLine
 10
12.192149
 20
12.442196
 30
0.0
 11
12.192149
 21
12.442196
 31
0.0
  0
LINE
  5
2182
100
AcDbEntity
  8
0
 62
     0
100
AcDbLine
 10
12.203087
 20
12.442196
 30
0.0
 11
12.203087
 21
12.442196
 31
0.0
  0
LINE
  5
2183
100
AcDbEntity
  8
0
 62
     0
100
AcDbLine
 10
12.214024
 20
12.442196
 30
0.0
 11
12.214024
 21
12.442196
 31
0.0
  0
LINE
  5
2184
100
AcDbEntity
  8
0
 62
     0
100
AcDbLine
 10
12.224962
 20
12.442196
 30
0.0
 11
12.224962
 21
12.442196
 31
0.0
  0
LINE
  5
2185
100
AcDbEntity
  8
0
 62
     0
100
AcDbLine
 10
12.235899
 20
12.442196
 30
0.0
 11
12.235899
 21
12.442196
 31
0.0
  0
LINE
  5
2186
100
AcDbEntity
  8
0
 62
     0
100
AcDbLine
 10
12.246837
 20
12.442196
 30
0.0
 11
12.246837
 21
12.442196
 31
0.0
  0
ENDBLK
  5
2187
100
AcDbEntity
  8
0
100
AcDbBlockEnd
  0
BLOCK
  5
21A5
100
AcDbEntity
  8
0
100
AcDbBlockBegin
  2
ESDINF_101
 70
     0
 10
0.0
 20
0.0
 30
0.0
  3
ESDINF_101
  1

  0
LINE
  5
21A2
100
AcDbEntity
  8
D1
100
AcDbLine
 10
2.987898
 20
0.000297
 30
0.0
 11
-2.987323
 21
0.000297
 31
0.0
  0
LINE
  5
21A3
100
AcDbEntity
  8
D1
100
AcDbLine
 10
-2.89229
 20
0.059637
 30
0.0
 11
2.892865
 21
0.059637
 31
0.0
  0
TEXT
  5
21A4
100
AcDbEntity
  8
D1
100
AcDbText
 10
-2.794565
 20
0.106519
 30
0.0
 40
0.15
  1
INFORMATION ONLY, NOT FOR MANUFACTURING
100
AcDbText
  0
ENDBLK
  5
21A6
100
AcDbEntity
  8
0
100
AcDbBlockEnd
  0
BLOCK
  5
21AC
100
AcDbEntity
  8
0
100
AcDbBlockBegin
  2
COPYRIGHT
 70
     0
 10
0.0
 20
0.0
 30
0.0
  3
COPYRIGHT
  1

  0
MTEXT
  5
21AB
100
AcDbEntity
  8
BORDER
100
AcDbMText
 10
0.025873
 20
0.323045
 30
0.0
 40
0.25
 41
9.341
 71
     1
 72
     5
  1
\fVerdana|b0|i0|c0|p34;COPYRIGHT \fSymbol|b0|i0|c2|p18;\H0.3;Ó\fVerdana|b0|i0|c0|p34;\H0.25; 2000 by THORLABS INC.
  0
ENDBLK
  5
21AD
100
AcDbEntity
  8
0
100
AcDbBlockEnd
  0
ENDSEC
  0
SECTION
  2
ENTITIES
  0
LINE
  5
72C
100
AcDbEntity
  8
S2
100
AcDbLine
 10
9.693067
 20
12.342071
 30
0.0
 11
9.654075
 21
12.342071
 31
0.0
  0
LINE
  5
72D
100
AcDbEntity
  8
S2
100
AcDbLine
 10
9.654075
 20
12.661071
 30
0.0
 11
9.693067
 21
12.661071
 31
0.0
  0
LINE
  5
732
100
AcDbEntity
  8
S2
100
AcDbLine
 10
9.693067
 20
12.661071
 30
0.0
 11
9.693067
 21
12.342071
 31
0.0
  0
LINE
  5
747
100
AcDbEntity
  8
HOUSING
100
AcDbLine
 10
9.554648
 20
13.120321
 30
0.0
 11
9.554648
 21
11.895321
 31
0.0
1001
ACAD
1000
ASC_BOUNDS
1002
{
1070
    19
1002
}
  0
LINE
  5
750
100
AcDbEntity
  8
S2
100
AcDbLine
 10
8.931575
 20
11.767821
 30
0.0
 11
8.931575
 21
13.257821
 31
0.0
1001
ACAD
1000
ASC_BOUNDS
1002
{
1070
    19
1002
}
  0
LINE
  5
751
100
AcDbEntity
  8
S2
100
AcDbLine
 10
8.994075
 20
11.767821
 30
0.0
 11
8.994075
 21
13.257821
 31
0.0
1001
ACAD
1000
ASC_BOUNDS
1002
{
1070
    19
1002
}
  0
LINE
  5
75E
100
AcDbEntity
  8
HOUSING
100
AcDbLine
 10
9.554648
 20
13.120321
 30
0.0
 11
9.503085
 21
13.257821
 31
0.0
1001
ACAD
1000
ASC_BOUNDS
1002
{
1070
    19
1002
}
  0
CIRCLE
  5
76C
100
AcDbEntity
  8
S2
100
AcDbCircle
 10
12.177968
 20
12.507821
 30
0.0
 40
0.1595
  0
CIRCLE
  5
773
100
AcDbEntity
  8
S2
100
AcDbCircle
 10
12.177968
 20
12.507821
 30
0.0
 40
0.127651
  0
TEXT
  5
EB8
100
AcDbEntity
  8
S1
100
AcDbText
 10
5.863794
 20
12.355769
 30
0.0
 40
0.075
  1
DET110
  7
HL-HD
100
AcDbText
  0
TEXT
  5
EBB
100
AcDbEntity
  8
S1
100
AcDbText
 10
6.806943
 20
12.70963
 30
0.0
 40
0.075
  1
ON
  7
HL-HD
100
AcDbText
  0
TEXT
  5
EC6
100
AcDbEntity
  8
S1
100
AcDbText
 10
6.796732
 20
12.229257
 30
0.0
 40
0.075
  1
OFF
  7
HL-HD
100
AcDbText
  0
LINE
  5
125A
100
AcDbEntity
  8
HOUSING
100
AcDbLine
 39
0.18
 10
9.647004
 20
13.016642
 30
0.0
 11
9.644075
 21
13.019571
 31
0.0
  0
LINE
  5
125B
100
AcDbEntity
  8
HOUSING
100
AcDbLine
 39
0.18
 10
9.554648
 20
13.019571
 30
0.0
 11
9.56504
 21
13.001571
 31
0.0
1001
ACAD
1000
ASC_BOUNDS
1002
{
1070
    19
1002
}
  0
LINE
  5
125C
100
AcDbEntity
  8
HOUSING
100
AcDbLine
 39
0.18
 10
9.584648
 20
13.019571
 30
0.0
 11
9.574256
 21
13.001571
 31
0.0
1001
ACAD
1000
ASC_BOUNDS
1002
{
1070
    19
1002
}
  0
LINE
  5
125D
100
AcDbEntity
  8
HOUSING
100
AcDbLine
 39
0.18
 10
9.56504
 20
13.001571
 30
0.0
 11
9.574256
 21
13.001571
 31
0.0
1001
ACAD
1000
ASC_BOUNDS
1002
{
1070
    19
1002
}
  0
LINE
  5
1260
100
AcDbEntity
  8
HOUSING
  6
CONTINUOUS
100
AcDbLine
 39
0.18
 10
9.644075
 20
13.019571
 30
0.0
 11
9.584648
 21
13.019571
 31
0.0
  0
ARC
  5
14A8
100
AcDbEntity
  8
HOUSING
100
AcDbCircle
 10
6.497275
 20
12.507821
 30
0.0
 40
0.75
100
AcDbArc
 50
279.366789
 51
260.633211
  0
LINE
  5
14B4
100
AcDbEntity
  8
HOUSING
100
AcDbLine
 10
8.994075
 20
13.257821
 30
0.0
 11
9.503085
 21
13.257821
 31
0.0
1001
ACAD
1000
ASC_BOUNDS
1002
{
1070
    19
1002
}
  0
CIRCLE
  5
14CD
100
AcDbEntity
  8
HOUSING
100
AcDbCircle
 10
12.177968
 20
12.507821
 30
0.0
 40
0.19375
  0
CIRCLE
  5
14D2
100
AcDbEntity
  8
HOUSING
  6
HIDDEN
100
AcDbCircle
 10
12.177968
 20
12.507821
 30
0.0
 40
0.49675
  0
CIRCLE
  5
14D3
100
AcDbEntity
  8
HOUSING
100
AcDbCircle
 10
12.177968
 20
12.507821
 30
0.0
 40
0.51175
  0
CIRCLE
  5
14D4
100
AcDbEntity
  8
HOUSING
100
AcDbCircle
 10
12.177968
 20
12.507821
 30
0.0
 40
0.6125
  0
LINE
  5
14D7
100
AcDbEntity
  8
HOUSING
100
AcDbLine
 10
12.300034
 20
11.767821
 30
0.0
 11
12.055903
 21
11.767821
 31
0.0
  0
LINE
  5
14DC
100
AcDbEntity
  8
HOUSING
100
AcDbLine
 10
9.647004
 20
13.016642
 30
0.0
 11
9.654075
 21
12.999571
 31
0.0
1001
ACAD
1000
ASC_BOUNDS
1002
{
1070
    19
1002
}
  0
LINE
  5
14DF
100
AcDbEntity
  8
HOUSING
100
AcDbLine
 10
6.619341
 20
11.767821
 30
0.0
 11
6.37521
 21
11.767821
 31
0.0
  0
LINE
  5
15A6
100
AcDbEntity
  8
HOUSING
100
AcDbLine
 39
0.18
 10
9.584648
 20
11.996071
 30
0.0
 11
9.574256
 21
12.014071
 31
0.0
1001
ACAD
1000
ASC_BOUNDS
1002
{
1070
    19
1002
}
  0
LINE
  5
15A7
100
AcDbEntity
  8
HOUSING
100
AcDbLine
 39
0.18
 10
9.56504
 20
12.014071
 30
0.0
 11
9.574256
 21
12.014071
 31
0.0
1001
ACAD
1000
ASC_BOUNDS
1002
{
1070
    19
1002
}
  0
LINE
  5
15A8
100
AcDbEntity
  8
HOUSING
100
AcDbLine
 39
0.18
 10
9.554648
 20
11.996071
 30
0.0
 11
9.56504
 21
12.014071
 31
0.0
1001
ACAD
1000
ASC_BOUNDS
1002
{
1070
    19
1002
}
  0
LINE
  5
15A9
100
AcDbEntity
  8
HOUSING
100
AcDbLine
 39
0.18
 10
9.647004
 20
11.999
 30
0.0
 11
9.644075
 21
11.996071
 31
0.0
  0
LINE
  5
15AA
100
AcDbEntity
  8
HOUSING
  6
CONTINUOUS
100
AcDbLine
 39
0.18
 10
9.644075
 20
11.996071
 30
0.0
 11
9.584648
 21
11.996071
 31
0.0
  0
LINE
  5
15AC
100
AcDbEntity
  8
HOUSING
100
AcDbLine
 10
9.554648
 20
11.895321
 30
0.0
 11
9.506835
 21
11.767821
 31
0.0
1001
ACAD
1000
ASC_BOUNDS
1002
{
1070
    19
1002
}
  0
LINE
  5
15B5
100
AcDbEntity
  8
HOUSING
100
AcDbLine
 10
9.647004
 20
11.999
 30
0.0
 11
9.654075
 21
12.016071
 31
0.0
1001
ACAD
1000
ASC_BOUNDS
1002
{
1070
    19
1002
}
  0
LINE
  5
15BE
100
AcDbEntity
  8
HOUSING
100
AcDbLine
 10
8.994075
 20
11.767821
 30
0.0
 11
8.994075
 21
13.257821
 31
0.0
1001
ACAD
1000
ASC_BOUNDS
1002
{
1070
    19
1002
}
  0
ARC
  5
15C8
100
AcDbEntity
  8
HOUSING
100
AcDbCircle
 10
12.177968
 20
12.507821
 30
0.0
 40
0.75
100
AcDbArc
 50
279.366789
 51
260.633211
  0
LINE
  5
15C9
100
AcDbEntity
  8
HOUSING
100
AcDbLine
 10
9.506835
 20
11.767821
 30
0.0
 11
8.994075
 21
11.767821
 31
0.0
1001
ACAD
1000
ASC_BOUNDS
1002
{
1070
    19
1002
}
  0
LINE
  5
1835
100
AcDbEntity
  8
HOUSING
100
AcDbLine
 10
9.654075
 20
12.016071
 30
0.0
 11
9.654075
 21
12.999571
 31
0.0
1001
ACAD
1000
ASC_BOUNDS
1002
{
1070
    19
1002
}
  0
LINE
  5
192F
100
AcDbEntity
  8
S2
100
AcDbLine
 10
8.994075
 20
13.257821
 30
0.0
 11
8.931575
 21
13.257821
 31
0.0
  0
LINE
  5
1930
100
AcDbEntity
  8
S2
100
AcDbLine
 10
8.994075
 20
11.767821
 30
0.0
 11
8.931575
 21
11.767821
 31
0.0
  0
CIRCLE
  5
195D
100
AcDbEntity
  8
S2
100
AcDbCircle
 10
6.497275
 20
13.164279
 30
0.0
 40
0.048
  0
CIRCLE
  5
195E
100
AcDbEntity
  8
S2
100
AcDbCircle
 10
7.065785
 20
12.179591
 30
0.0
 40
0.048
  0
CIRCLE
  5
195F
100
AcDbEntity
  8
S2
100
AcDbCircle
 10
5.928766
 20
12.179591
 30
0.0
 40
0.048
  0
CIRCLE
  5
1B0B
100
AcDbEntity
  8
S2
100
AcDbCircle
 10
6.497275
 20
12.827821
 30
0.0
 40
0.24
  0
CIRCLE
  5
1B11
100
AcDbEntity
  8
S2
100
AcDbCircle
 10
6.887275
 20
12.507821
 30
0.0
 40
0.0975
  0
TEXT
  5
1B2A
100
AcDbEntity
  8
S1
100
AcDbText
 10
6.330587
 20
11.867003
 30
0.0
 40
0.06
  1
OUTPUT
  7
HL-HD
 72
     1
 11
6.500587
 21
11.867003
 31
0.0
100
AcDbText
  0
TEXT
  5
1B2B
100
AcDbEntity
  8
S1
100
AcDbText
 10
6.029055
 20
12.738139
 30
0.0
 40
0.06
  1
BAT
  7
HL-HD
100
AcDbText
  0
CIRCLE
  5
1B85
100
AcDbEntity
  8
S2
100
AcDbCircle
 10
5.928766
 20
12.179591
 30
0.0
 40
0.0675
  0
CIRCLE
  5
1B9E
100
AcDbEntity
  8
S2
100
AcDbCircle
 10
6.497275
 20
13.164279
 30
0.0
 40
0.0675
  0
CIRCLE
  5
1BB7
100
AcDbEntity
  8
S2
100
AcDbCircle
 10
7.065785
 20
12.179591
 30
0.0
 40
0.0675
  0
CIRCLE
  5
1BC8
100
AcDbEntity
  8
S2
100
AcDbCircle
 10
6.876275
 20
12.511821
 30
0.0
 40
0.119852
  0
LINE
  5
1BC9
100
AcDbEntity
  8
S2
100
AcDbLine
 10
6.798775
 20
12.646055
 30
0.0
 11
6.721275
 21
12.511821
 31
0.0
  0
LINE
  5
1BCA
100
AcDbEntity
  8
S2
100
AcDbLine
 10
7.031275
 20
12.511821
 30
0.0
 11
6.953775
 21
12.646055
 31
0.0
  0
LINE
  5
1BCB
100
AcDbEntity
  8
S2
100
AcDbLine
 10
6.798775
 20
12.377587
 30
0.0
 11
6.953775
 21
12.377587
 31
0.0
  0
ARC
  5
1BCC
100
AcDbEntity
  8
S2
100
AcDbCircle
 10
6.876275
 20
12.511821
 30
0.0
 40
0.092
100
AcDbArc
 50
297.825437
 51
242.174563
  0
ARC
  5
1BCD
100
AcDbEntity
  8
S2
100
AcDbCircle
 10
6.876275
 20
12.511821
 30
0.0
 40
0.0625
100
AcDbArc
 50
318.755237
 51
221.244763
  0
ARC
  5
1BCE
100
AcDbEntity
  8
S2
100
AcDbCircle
 10
6.876275
 20
12.454056
 30
0.0
 40
0.049
100
AcDbArc
 50
171.036583
 51
8.963417
  0
ARC
  5
1BCF
100
AcDbEntity
  8
S2
100
AcDbCircle
 10
6.876275
 20
12.511821
 30
0.0
 40
0.04
100
AcDbArc
 50
8.963417
 51
171.036583
  0
LINE
  5
1BD0
100
AcDbEntity
  8
S2
100
AcDbLine
 10
6.721275
 20
12.511821
 30
0.0
 11
6.798775
 21
12.377587
 31
0.0
  0
LINE
  5
1BD1
100
AcDbEntity
  8
S2
100
AcDbLine
 10
6.827874
 20
12.46169
 30
0.0
 11
6.836764
 21
12.518053
 31
0.0
  0
LINE
  5
1BD2
100
AcDbEntity
  8
S2
100
AcDbLine
 10
6.953775
 20
12.377587
 30
0.0
 11
7.031275
 21
12.511821
 31
0.0
  0
LINE
  5
1BD3
100
AcDbEntity
  8
S2
100
AcDbLine
 10
6.915787
 20
12.518053
 30
0.0
 11
6.924677
 21
12.46169
 31
0.0
  0
LINE
  5
1BD4
100
AcDbEntity
  8
S2
100
AcDbLine
 10
6.953775
 20
12.646055
 30
0.0
 11
6.798775
 21
12.646055
 31
0.0
  0
SOLID
  5
1BD5
100
AcDbEntity
  8
S2
100
AcDbTrace
 10
5.981358
 20
12.516592
 30
0.104814
 11
5.947376
 21
12.516592
 31
0.104814
 12
5.981358
 22
12.502671
 32
0.104814
 13
5.947376
 23
12.502671
 33
0.104814
  0
SOLID
  5
1BD6
100
AcDbEntity
  8
S2
100
AcDbTrace
 10
5.862214
 20
12.548527
 30
0.104814
 11
5.930999
 21
12.548527
 31
0.104814
 12
5.862214
 22
12.535016
 32
0.104814
 13
5.930999
 23
12.535016
 33
0.104814
  0
SOLID
  5
1BD7
100
AcDbEntity
  8
S2
100
AcDbTrace
 10
5.930999
 20
12.548527
 30
0.104814
 11
5.947376
 21
12.548527
 31
0.104814
 12
5.930999
 22
12.466642
 32
0.104814
 13
5.947376
 23
12.466642
 33
0.104814
  0
SOLID
  5
1BD8
100
AcDbEntity
  8
S2
100
AcDbTrace
 10
5.888418
 20
12.466642
 30
0.104814
 11
5.904795
 21
12.466642
 31
0.104814
 12
5.888418
 22
12.535016
 32
0.104814
 13
5.904795
 23
12.535016
 33
0.104814
  0
LINE
  5
1BF2
100
AcDbEntity
  8
S2
100
AcDbLine
 10
6.15946
 20
12.548527
 30
0.104814
 11
6.142264
 21
12.548527
 31
0.104814
  0
LINE
  5
1BF3
100
AcDbEntity
  8
S2
100
AcDbLine
 10
6.142264
 20
12.466642
 30
0.104814
 11
6.200403
 21
12.466642
 31
0.104814
  0
SOLID
  5
1BF4
100
AcDbEntity
  8
S2
100
AcDbTrace
 10
6.036681
 20
12.466298
 30
0.104814
 11
6.036681
 21
12.476644
 31
0.104814
 12
6.058049
 22
12.473655
 32
0.104814
 13
6.052305
 23
12.481473
 33
0.104814
  0
SOLID
  5
1C03
100
AcDbEntity
  8
S2
100
AcDbTrace
 10
6.067699
 20
12.534125
 30
0.104814
 11
6.055522
 21
12.528376
 31
0.104814
 12
6.051386
 22
12.547
 32
0.104814
 13
6.04725
 23
12.535274
 33
0.104814
  0
SOLID
  5
1C04
100
AcDbEntity
  8
S2
100
AcDbTrace
 10
6.058049
 20
12.473655
 30
0.104814
 11
6.052305
 21
12.481473
 31
0.104814
 12
6.069537
 22
12.486531
 32
0.104814
 13
6.059887
 23
12.496647
 33
0.104814
  0
SOLID
  5
1C05
100
AcDbEntity
  8
S2
100
AcDbTrace
 10
6.051386
 20
12.547
 30
0.104814
 11
6.04725
 21
12.535274
 31
0.104814
 12
6.036379
 22
12.550189
 32
0.104814
 13
6.036033
 23
12.53842
 33
0.104814
  0
SOLID
  5
1C06
100
AcDbEntity
  8
S2
100
AcDbTrace
 10
6.003518
 20
12.530113
 30
0.104814
 11
6.015279
 21
12.521806
 31
0.104814
 12
5.998769
 22
12.507454
 32
0.104814
 13
6.012095
 23
12.506304
 33
0.104814
  0
SOLID
  5
1C07
100
AcDbEntity
  8
S2
100
AcDbTrace
 10
6.014587
 20
12.542574
 30
0.104814
 11
6.020813
 21
12.533228
 31
0.104814
 12
6.003518
 22
12.530113
 32
0.104814
 13
6.015279
 23
12.521806
 33
0.104814
  0
SOLID
  5
1C08
100
AcDbEntity
  8
S2
100
AcDbTrace
 10
6.004743
 20
12.484002
 30
0.104814
 11
6.016461
 21
12.48837
 31
0.104814
 12
6.021975
 22
12.469057
 32
0.104814
 13
6.027949
 23
12.477564
 33
0.104814
  0
SOLID
  5
1C09
100
AcDbEntity
  8
S2
100
AcDbTrace
 10
5.981358
 20
12.548527
 30
0.104814
 11
5.997736
 21
12.548527
 31
0.104814
 12
5.981358
 22
12.466642
 32
0.104814
 13
5.997736
 23
12.466642
 33
0.104814
  0
SOLID
  5
1C0A
100
AcDbEntity
  8
S2
100
AcDbTrace
 10
5.998769
 20
12.507454
 30
0.104814
 11
6.012095
 21
12.506304
 31
0.104814
 12
6.004743
 22
12.484002
 32
0.104814
 13
6.016461
 23
12.48837
 33
0.104814
  0
SOLID
  5
1C0F
100
AcDbEntity
  8
S2
100
AcDbTrace
 10
6.021975
 20
12.469057
 30
0.104814
 11
6.027949
 21
12.477564
 31
0.104814
 12
6.036681
 22
12.466298
 32
0.104814
 13
6.036681
 23
12.476644
 33
0.104814
  0
SOLID
  5
1C10
100
AcDbEntity
  8
S2
100
AcDbTrace
 10
6.036379
 20
12.550189
 30
0.104814
 11
6.036033
 21
12.53842
 31
0.104814
 12
6.014587
 22
12.542574
 32
0.104814
 13
6.020813
 23
12.533228
 33
0.104814
  0
SOLID
  5
1C11
100
AcDbEntity
  8
S2
100
AcDbTrace
 10
6.125111
 20
12.468918
 30
0.104814
 11
6.1403
 21
12.470515
 31
0.104814
 12
6.124526
 22
12.470822
 32
0.104814
 13
6.140616
 23
12.472067
 33
0.104814
  0
SOLID
  5
1C12
100
AcDbEntity
  8
S2
100
AcDbTrace
 10
6.125884
 20
12.466642
 30
0.104814
 11
6.142767
 21
12.466642
 31
0.104814
 12
6.125111
 22
12.468918
 32
0.104814
 13
6.1403
 23
12.470515
 33
0.104814
  0
SOLID
  5
1C13
100
AcDbEntity
  8
S2
100
AcDbTrace
 10
6.125838
 20
12.531011
 30
0.104814
 11
6.138553
 21
12.537627
 31
0.104814
 12
6.120243
 22
12.536949
 32
0.104814
 13
6.126007
 23
12.546279
 33
0.104814
  0
SOLID
  5
1C14
100
AcDbEntity
  8
S2
100
AcDbTrace
 10
6.127533
 20
12.524225
 30
0.104814
 11
6.140248
 21
12.520153
 31
0.104814
 12
6.125838
 22
12.531011
 32
0.104814
 13
6.138553
 23
12.537627
 33
0.104814
  0
SOLID
  5
1C15
100
AcDbEntity
  8
S2
100
AcDbTrace
 10
6.121826
 20
12.511422
 30
0.104814
 11
6.128084
 21
12.508505
 31
0.104814
 12
6.127533
 22
12.524225
 32
0.104814
 13
6.140248
 23
12.520153
 33
0.104814
  0
SOLID
  5
1C16
100
AcDbEntity
  8
S2
100
AcDbTrace
 10
6.12359
 20
12.490464
 30
0.104814
 11
6.136875
 21
12.495116
 31
0.104814
 12
6.119826
 22
12.49556
 32
0.104814
 13
6.128683
 23
12.501763
 33
0.104814
  0
SOLID
  5
1C17
100
AcDbEntity
  8
S2
100
AcDbTrace
 10
6.123262
 20
12.485576
 30
0.104814
 11
6.138821
 21
12.490285
 31
0.104814
 12
6.12359
 22
12.490464
 32
0.104814
 13
6.136875
 23
12.495116
 33
0.104814
  0
SOLID
  5
1C18
100
AcDbEntity
  8
S2
100
AcDbTrace
 10
6.123262
 20
12.485576
 30
0.104814
 11
6.124526
 21
12.470822
 31
0.104814
 12
6.138821
 22
12.490285
 32
0.104814
 13
6.140616
 23
12.472067
 33
0.104814
  0
SOLID
  5
1C21
100
AcDbEntity
  8
S2
100
AcDbTrace
 10
6.121826
 20
12.511422
 30
0.104814
 11
6.128084
 21
12.508505
 31
0.104814
 12
6.113215
 22
12.511711
 32
0.104814
 13
6.123416
 23
12.505671
 33
0.104814
  0
SOLID
  5
1C22
100
AcDbEntity
  8
S2
100
AcDbTrace
 10
6.120243
 20
12.536949
 30
0.104814
 11
6.126007
 21
12.546279
 31
0.104814
 12
6.113215
 22
12.536044
 32
0.104814
 13
6.120759
 23
12.548527
 33
0.104814
  0
SOLID
  5
1C23
100
AcDbEntity
  8
S2
100
AcDbTrace
 10
6.115383
 20
12.499982
 30
0.104814
 11
6.123416
 21
12.505671
 31
0.104814
 12
6.108238
 22
12.499368
 32
0.104814
 13
6.113215
 23
12.511711
 33
0.104814
  0
SOLID
  5
1C24
100
AcDbEntity
  8
S2
100
AcDbTrace
 10
6.119826
 20
12.49556
 30
0.104814
 11
6.128683
 21
12.501763
 31
0.104814
 12
6.115383
 22
12.499982
 32
0.104814
 13
6.123416
 23
12.505671
 33
0.104814
  0
SOLID
  5
1C25
100
AcDbEntity
  8
S2
100
AcDbTrace
 10
6.092288
 20
12.511711
 30
0.104814
 11
6.092288
 21
12.499368
 31
0.104814
 12
6.113215
 22
12.511711
 32
0.104814
 13
6.108238
 23
12.499368
 33
0.104814
  0
SOLID
  5
1C26
100
AcDbEntity
  8
S2
100
AcDbTrace
 10
6.092288
 20
12.536044
 30
0.104814
 11
6.092288
 21
12.546743
 31
0.104814
 12
6.113215
 22
12.536044
 32
0.104814
 13
6.120759
 23
12.548527
 33
0.104814
  0
SOLID
  5
1C2B
100
AcDbEntity
  8
S2
100
AcDbTrace
 10
6.074592
 20
12.510902
 30
0.104814
 11
6.060347
 21
12.512282
 31
0.104814
 12
6.067699
 22
12.534125
 32
0.104814
 13
6.055522
 23
12.528376
 33
0.104814
  0
SOLID
  5
1C34
100
AcDbEntity
  8
S2
100
AcDbTrace
 10
6.069537
 20
12.486531
 30
0.104814
 11
6.059887
 21
12.496647
 31
0.104814
 12
6.074592
 22
12.510902
 32
0.104814
 13
6.060347
 23
12.512282
 33
0.104814
  0
SOLID
  5
1C3D
100
AcDbEntity
  8
S2
100
AcDbTrace
 10
6.07556
 20
12.466642
 30
0.104814
 11
6.07556
 21
12.548527
 31
0.104814
 12
6.092288
 22
12.466642
 32
0.104814
 13
6.092288
 23
12.546743
 33
0.104814
  0
LINE
  5
1C42
100
AcDbEntity
  8
S2
100
AcDbLine
 10
6.142264
 20
12.548527
 30
0.104814
 11
6.142264
 21
12.466642
 31
0.104814
  0
LINE
  5
1C4F
100
AcDbEntity
  8
S2
100
AcDbLine
 10
6.221075
 20
12.49653
 30
0.104814
 11
6.244831
 21
12.49653
 31
0.104814
  0
LINE
  5
1C50
100
AcDbEntity
  8
S2
100
AcDbLine
 10
6.244831
 20
12.49653
 30
0.104814
 11
6.232953
 21
12.535087
 31
0.104814
  0
LINE
  5
1C51
100
AcDbEntity
  8
S2
100
AcDbLine
 10
6.232953
 20
12.535087
 30
0.104814
 11
6.221075
 21
12.49653
 31
0.104814
  0
LINE
  5
1C52
100
AcDbEntity
  8
S2
100
AcDbLine
 10
6.199613
 20
12.480562
 30
0.104814
 11
6.15946
 21
12.480562
 31
0.104814
  0
LINE
  5
1C53
100
AcDbEntity
  8
S2
100
AcDbLine
 10
6.15946
 20
12.480562
 30
0.104814
 11
6.15946
 21
12.548527
 31
0.104814
  0
ARC
  5
1C54
100
AcDbEntity
  8
S2
100
AcDbCircle
 10
6.306027
 20
12.540748
 30
0.104814
 40
0.03337
100
AcDbArc
 50
295.378395
 51
313.157563
  0
ARC
  5
1C55
100
AcDbEntity
  8
S2
100
AcDbCircle
 10
6.308943
 20
12.483498
 30
0.104814
 40
0.029395
100
AcDbArc
 50
41.821431
 51
67.21117
  0
ARC
  5
1C56
100
AcDbEntity
  8
S2
100
AcDbCircle
 10
6.307436
 20
12.514854
 30
0.104814
 40
0.033674
100
AcDbArc
 50
58.670206
 51
90.0
  0
ARC
  5
1C57
100
AcDbEntity
  8
S2
100
AcDbCircle
 10
6.308893
 20
12.501357
 30
0.104814
 40
0.034715
100
AcDbArc
 50
270.0
 51
297.452648
  0
LINE
  5
1C58
100
AcDbEntity
  8
S2
100
AcDbLine
 10
6.306262
 20
12.536245
 30
0.104814
 11
6.285556
 21
12.536245
 31
0.104814
  0
LINE
  5
1C59
100
AcDbEntity
  8
S2
100
AcDbLine
 10
6.285556
 20
12.536245
 30
0.104814
 11
6.285556
 21
12.515773
 31
0.104814
  0
LINE
  5
1C5A
100
AcDbEntity
  8
S2
100
AcDbLine
 10
6.285556
 20
12.515773
 30
0.104814
 11
6.306262
 21
12.515773
 31
0.104814
  0
ARC
  5
1C5B
100
AcDbEntity
  8
S2
100
AcDbCircle
 10
6.306262
 20
12.526009
 30
0.104814
 40
0.010236
100
AcDbArc
 50
270.0
 51
90.000005
  0
LINE
  5
1C5C
100
AcDbEntity
  8
S2
100
AcDbLine
 10
6.30732
 20
12.503081
 30
0.104814
 11
6.285556
 21
12.503081
 31
0.104814
  0
LINE
  5
1C5D
100
AcDbEntity
  8
S2
100
AcDbLine
 10
6.307436
 20
12.548527
 30
0.104814
 11
6.269179
 21
12.548527
 31
0.104814
  0
LINE
  5
1C5E
100
AcDbEntity
  8
S2
100
AcDbLine
 10
6.285556
 20
12.479334
 30
0.104814
 11
6.305208
 21
12.479334
 31
0.104814
  0
ARC
  5
1C5F
100
AcDbEntity
  8
S2
100
AcDbCircle
 10
6.305208
 20
12.493872
 30
0.104814
 40
0.014538
100
AcDbArc
 50
270.0
 51
313.227508
  0
LINE
  5
1C65
100
AcDbEntity
  8
S2
100
AcDbLine
 10
6.269179
 20
12.466642
 30
0.104814
 11
6.308893
 21
12.466642
 31
0.104814
  0
LINE
  5
1C66
100
AcDbEntity
  8
S2
100
AcDbLine
 10
6.269179
 20
12.548527
 30
0.104814
 11
6.269179
 21
12.472433
 31
0.104814
  0
LINE
  5
1C67
100
AcDbEntity
  8
S2
100
AcDbLine
 10
6.285556
 20
12.503081
 30
0.104814
 11
6.285556
 21
12.479334
 31
0.104814
  0
ARC
  5
1C68
100
AcDbEntity
  8
S2
100
AcDbCircle
 10
6.30732
 20
12.491626
 30
0.104814
 40
0.011455
100
AcDbArc
 50
313.227508
 51
90.0
  0
ARC
  5
1C69
100
AcDbEntity
  8
S2
100
AcDbCircle
 10
6.315243
 20
12.489135
 30
0.104814
 40
0.020942
100
AcDbArc
 50
5.797667
 51
41.821431
  0
ARC
  5
1C6A
100
AcDbEntity
  8
S2
100
AcDbCircle
 10
6.315362
 20
12.527874
 30
0.104814
 40
0.018431
100
AcDbArc
 50
358.653261
 51
58.670206
  0
ARC
  5
1C6B
100
AcDbEntity
  8
S2
100
AcDbCircle
 10
6.318161
 20
12.527808
 30
0.104814
 40
0.015631
100
AcDbArc
 50
313.157563
 51
358.653261
  0
ARC
  5
1C6C
100
AcDbEntity
  8
S2
100
AcDbCircle
 10
6.315243
 20
12.489135
 30
0.104814
 40
0.020942
100
AcDbArc
 50
297.452648
 51
341.332312
  0
SOLID
  5
1C75
100
AcDbEntity
  8
S2
100
AcDbTrace
 10
6.413225
 20
12.487673
 30
0.104814
 11
6.451743
 21
12.511925
 31
0.104814
 12
6.413227
 22
12.479954
 32
0.104814
 13
6.451744
 23
12.503851
 33
0.104814
  0
SOLID
  5
1C76
100
AcDbEntity
  8
S2
100
AcDbTrace
 10
6.413225
 20
12.512133
 30
0.104814
 11
6.451744
 21
12.512133
 31
0.104814
 12
6.413225
 22
12.504044
 32
0.104814
 13
6.451744
 23
12.504044
 33
0.104814
  0
SOLID
  5
1C77
100
AcDbEntity
  8
S2
100
AcDbTrace
 10
6.451744
 20
12.479391
 30
0.104814
 11
6.413225
 21
12.479391
 31
0.104814
 12
6.451744
 22
12.48748
 32
0.104814
 13
6.413225
 23
12.48748
 33
0.104814
  0
SOLID
  5
1C78
100
AcDbEntity
  8
S2
100
AcDbTrace
 10
6.413225
 20
12.464562
 30
0.104814
 11
6.413225
 21
12.472651
 31
0.104814
 12
6.451744
 22
12.464562
 32
0.104814
 13
6.451744
 23
12.472651
 33
0.104814
  0
SOLID
  5
1C79
100
AcDbEntity
  8
S2
100
AcDbTrace
 10
6.425724
 20
12.523592
 30
0.104814
 11
6.421771
 21
12.518865
 31
0.104814
 12
6.43363
 22
12.522957
 32
0.104814
 13
6.434054
 23
12.516396
 33
0.104814
  0
SOLID
  5
1C82
100
AcDbEntity
  8
S2
100
AcDbTrace
 10
6.418382
 20
12.529447
 30
0.104814
 11
6.413723
 21
12.527542
 31
0.104814
 12
6.425724
 22
12.523592
 32
0.104814
 13
6.421771
 23
12.518865
 33
0.104814
  0
SOLID
  5
1C83
100
AcDbEntity
  8
S2
100
AcDbTrace
 10
6.417606
 20
12.537631
 30
0.104814
 11
6.413158
 21
12.539465
 31
0.104814
 12
6.418382
 22
12.529447
 32
0.104814
 13
6.413723
 23
12.527542
 33
0.104814
  0
SOLID
  5
1C84
100
AcDbEntity
  8
S2
100
AcDbTrace
 10
6.422406
 20
12.542781
 30
0.104814
 11
6.418523
 21
12.547013
 31
0.104814
 12
6.417606
 22
12.537631
 32
0.104814
 13
6.413158
 23
12.539465
 33
0.104814
  0
SOLID
  5
1C89
100
AcDbEntity
  8
S2
100
AcDbTrace
 10
6.424032
 20
12.543197
 30
0.104814
 11
6.423531
 21
12.549865
 31
0.104814
 12
6.425089
 22
12.542714
 32
0.104814
 13
6.425089
 23
12.55025
 33
0.104814
  0
SOLID
  5
1C8A
100
AcDbEntity
  8
S2
100
AcDbTrace
 10
6.422406
 20
12.542781
 30
0.104814
 11
6.418523
 21
12.547013
 31
0.104814
 12
6.424032
 22
12.543197
 32
0.104814
 13
6.423531
 23
12.549865
 33
0.104814
  0
SOLID
  5
1C8B
100
AcDbEntity
  8
S2
100
AcDbTrace
 10
6.440364
 20
12.543328
 30
0.104814
 11
6.441183
 21
12.550402
 31
0.104814
 12
6.439306
 22
12.543069
 32
0.104814
 13
6.439306
 23
12.55086
 33
0.104814
  0
SOLID
  5
1C90
100
AcDbEntity
  8
S2
100
AcDbTrace
 10
6.445201
 20
12.540479
 30
0.104814
 11
6.449959
 21
12.543674
 31
0.104814
 12
6.440364
 22
12.543328
 32
0.104814
 13
6.441183
 23
12.550402
 33
0.104814
  0
SOLID
  5
1C91
100
AcDbEntity
  8
S2
100
AcDbTrace
 10
6.447229
 20
12.533776
 30
0.104814
 11
6.452221
 21
12.531281
 31
0.104814
 12
6.445201
 22
12.540479
 32
0.104814
 13
6.449959
 23
12.543674
 33
0.104814
  0
SOLID
  5
1C92
100
AcDbEntity
  8
S2
100
AcDbTrace
 10
6.443875
 20
12.526215
 30
0.104814
 11
6.446761
 21
12.521461
 31
0.104814
 12
6.447229
 22
12.533776
 32
0.104814
 13
6.452221
 23
12.531281
 33
0.104814
  0
SOLID
  5
1C93
100
AcDbEntity
  8
S2
100
AcDbTrace
 10
6.43363
 20
12.522957
 30
0.104814
 11
6.434054
 21
12.516396
 31
0.104814
 12
6.443875
 22
12.526215
 32
0.104814
 13
6.446761
 23
12.521461
 33
0.104814
  0
CIRCLE
  5
1C9C
100
AcDbEntity
  8
S2
100
AcDbCircle
 10
6.497275
 20
12.212821
 30
0.0
 40
0.2445
  0
CIRCLE
  5
1C9D
100
AcDbEntity
  8
S2
100
AcDbCircle
 10
6.497275
 20
12.212821
 30
0.0
 40
0.16925
  0
CIRCLE
  5
1C9E
100
AcDbEntity
  8
S2
100
AcDbCircle
 10
6.497275
 20
12.212821
 30
0.0
 40
0.18925
  0
CIRCLE
  5
1C9F
100
AcDbEntity
  8
S2
100
AcDbCircle
 10
6.497275
 20
12.212821
 30
0.0
 40
0.0875
  0
CIRCLE
  5
1CA0
100
AcDbEntity
  8
S2
100
AcDbCircle
 10
6.497275
 20
12.212821
 30
0.0
 40
0.0335
  0
ARC
  5
1CA1
100
AcDbEntity
  8
S2
100
AcDbCircle
 10
6.497275
 20
12.212821
 30
0.0
 40
0.2175
100
AcDbArc
 50
169.804264
 51
190.195736
  0
LINE
  5
1CA2
100
AcDbEntity
  8
S2
100
AcDbLine
 10
6.28321
 20
12.174321
 30
0.0
 11
6.311983
 21
12.174321
 31
0.0
  0
LINE
  5
1CA3
100
AcDbEntity
  8
S2
100
AcDbLine
 10
6.28321
 20
12.251321
 30
0.0
 11
6.311983
 21
12.251321
 31
0.0
  0
ARC
  5
1CA4
100
AcDbEntity
  8
S2
100
AcDbCircle
 10
6.497275
 20
12.212821
 30
0.0
 40
0.2175
100
AcDbArc
 50
349.804264
 51
10.195736
  0
LINE
  5
1CA5
100
AcDbEntity
  8
S2
100
AcDbLine
 10
6.682568
 20
12.174321
 30
0.0
 11
6.711341
 21
12.174321
 31
0.0
  0
LINE
  5
1CA6
100
AcDbEntity
  8
S2
100
AcDbLine
 10
6.682568
 20
12.251321
 30
0.0
 11
6.711341
 21
12.251321
 31
0.0
  0
LINE
  5
1CAB
100
AcDbEntity
  8
S2
100
AcDbLine
 10
12.106968
 20
12.436821
 30
0.0
 11
12.106968
 21
12.578821
 31
0.0
1001
ACAD
1000
ASC_BOUNDS
1002
{
1070
    19
1005
20DD
1002
}
  0
LINE
  5
1CAC
100
AcDbEntity
  8
S2
100
AcDbLine
 10
12.106968
 20
12.578821
 30
0.0
 11
12.248968
 21
12.578821
 31
0.0
1001
ACAD
1000
ASC_BOUNDS
1002
{
1070
    19
1005
20DD
1002
}
  0
LINE
  5
1CAD
100
AcDbEntity
  8
S2
100
AcDbLine
 10
12.248968
 20
12.578821
 30
0.0
 11
12.248968
 21
12.436821
 31
0.0
1001
ACAD
1000
ASC_BOUNDS
1002
{
1070
    19
1005
20DD
1002
}
  0
LINE
  5
1CAE
100
AcDbEntity
  8
S2
100
AcDbLine
 10
12.248968
 20
12.436821
 30
0.0
 11
12.106968
 21
12.436821
 31
0.0
1001
ACAD
1000
ASC_BOUNDS
1002
{
1070
    19
1005
20DD
1002
}
  0
ARC
  5
1D0A
100
AcDbEntity
  8
S2
100
AcDbCircle
 10
6.435821
 20
12.534073
 30
0.104814
 40
0.016102
100
AcDbArc
 50
309.147227
 51
349.741237
  0
ARC
  5
1D0B
100
AcDbEntity
  8
S2
100
AcDbCircle
 10
6.433575
 20
12.53448
 30
0.104814
 40
0.018385
100
AcDbArc
 50
349.741237
 51
24.355185
  0
ARC
  5
1D0C
100
AcDbEntity
  8
S2
100
AcDbCircle
 10
6.437747
 20
12.536368
 30
0.104814
 40
0.013805
100
AcDbArc
 50
24.355185
 51
83.073911
  0
ARC
  5
1D0D
100
AcDbEntity
  8
S2
100
AcDbCircle
 10
6.430554
 20
12.534589
 30
0.104814
 40
0.017632
100
AcDbArc
 50
161.634706
 51
248.567725
  0
ARC
  5
1D0E
100
AcDbEntity
  8
S2
100
AcDbCircle
 10
6.426912
 20
12.535798
 30
0.104814
 40
0.013796
100
AcDbArc
 50
98.190874
 51
161.634706
  0
ARC
  5
1D0F
100
AcDbEntity
  8
S2
100
AcDbCircle
 10
6.432131
 20
12.538607
 30
0.104814
 40
0.021948
100
AcDbArc
 50
248.567725
 51
309.147227
  0
ARC
  5
1D10
100
AcDbEntity
  8
S2
100
AcDbCircle
 10
6.426343
 20
12.534741
 30
0.104814
 40
0.008841
100
AcDbArc
 50
98.933816
 51
174.585285
  0
ARC
  5
1D11
100
AcDbEntity
  8
S2
100
AcDbCircle
 10
6.428118
 20
12.534573
 30
0.104814
 40
0.010625
100
AcDbArc
 50
174.585285
 51
240.177891
  0
ARC
  5
1D12
100
AcDbEntity
  8
S2
100
AcDbCircle
 10
6.432248
 20
12.541776
 30
0.104814
 40
0.018928
100
AcDbArc
 50
240.177891
 51
301.371173
  0
ARC
  5
1D13
100
AcDbEntity
  8
S2
100
AcDbCircle
 10
6.436548
 20
12.534724
 30
0.104814
 40
0.010668
100
AcDbArc
 50
301.371173
 51
348.408421
  0
ARC
  5
1D14
100
AcDbEntity
  8
S2
100
AcDbCircle
 10
6.437691
 20
12.534489
 30
0.104814
 40
0.009501
100
AcDbArc
 50
348.408421
 51
79.340215
  0
LINE
  5
1D15
100
AcDbEntity
  8
S2
100
AcDbLine
 10
6.271235
 20
12.466642
 30
0.104814
 11
6.254039
 21
12.466642
 31
0.104814
  0
LINE
  5
1D16
100
AcDbEntity
  8
S2
100
AcDbLine
 10
6.254039
 20
12.466642
 30
0.104814
 11
6.248615
 21
12.484247
 31
0.104814
  0
LINE
  5
1D17
100
AcDbEntity
  8
S2
100
AcDbLine
 10
6.248615
 20
12.484247
 30
0.104814
 11
6.217291
 21
12.484247
 31
0.104814
  0
LINE
  5
1D18
100
AcDbEntity
  8
S2
100
AcDbLine
 10
6.217291
 20
12.484247
 30
0.104814
 11
6.211867
 21
12.466642
 31
0.104814
  0
LINE
  5
1D19
100
AcDbEntity
  8
S2
100
AcDbLine
 10
6.211867
 20
12.466642
 30
0.104814
 11
6.194671
 21
12.466642
 31
0.104814
  0
LINE
  5
1D1A
100
AcDbEntity
  8
S2
100
AcDbLine
 10
6.199613
 20
12.480562
 30
0.104814
 11
6.223741
 21
12.548527
 31
0.104814
  0
LINE
  5
1D1B
100
AcDbEntity
  8
S2
100
AcDbLine
 10
6.223741
 20
12.548527
 30
0.104814
 11
6.242165
 21
12.548527
 31
0.104814
  0
LINE
  5
1D1C
100
AcDbEntity
  8
S2
100
AcDbLine
 10
6.242165
 20
12.548527
 30
0.104814
 11
6.269179
 21
12.472433
 31
0.104814
  0
ARC
  5
1D1D
100
AcDbEntity
  8
S2
100
AcDbCircle
 10
6.151156
 20
12.473106
 30
0.104814
 40
0.012229
100
AcDbArc
 50
185.627222
 51
207.349684
  0
ARC
  5
1D1E
100
AcDbEntity
  8
S2
100
AcDbCircle
 10
6.108238
 20
12.484288
 30
0.104814
 40
0.016717
100
AcDbArc
 50
4.896694
 51
90.0
  0
ARC
  5
1D1F
100
AcDbEntity
  8
S2
100
AcDbCircle
 10
6.021768
 20
12.507842
 30
0.104814
 40
0.052359
100
AcDbArc
 50
345.191922
 51
17.226528
  0
ARC
  5
1D20
100
AcDbEntity
  8
S2
100
AcDbCircle
 10
6.134186
 20
12.47165
 30
0.104814
 40
0.008058
100
AcDbArc
 50
184.896694
 51
211.100388
  0
LINE
  5
1D21
100
AcDbEntity
  8
S2
100
AcDbLine
 10
6.120759
 20
12.54689
 30
0.104814
 11
6.07556
 21
12.54689
 31
0.104814
  0
ARC
  5
1D22
100
AcDbEntity
  8
S2
100
AcDbCircle
 10
6.113215
 20
12.523878
 30
0.104814
 40
0.013804
100
AcDbArc
 50
270.0
 51
90.0
  0
ARC
  5
1D23
100
AcDbEntity
  8
S2
100
AcDbCircle
 10
6.120759
 20
12.527017
 30
0.104814
 40
0.019873
100
AcDbArc
 50
277.093871
 51
90.0
  0
ARC
  5
1D24
100
AcDbEntity
  8
S2
100
AcDbCircle
 10
6.121756
 20
12.488603
 30
0.104814
 40
0.01551
100
AcDbArc
 50
5.627222
 51
84.444025
  0
ARC
  5
1D25
100
AcDbEntity
  8
S2
100
AcDbCircle
 10
6.051283
 20
12.508088
 30
0.104814
 40
0.052114
100
AcDbArc
 50
163.450029
 51
196.014666
  0
ARC
  5
1D26
100
AcDbEntity
  8
S2
100
AcDbCircle
 10
6.055242
 20
12.507678
 30
0.104814
 40
0.0428
100
AcDbArc
 50
154.844311
 51
206.334604
  0
ARC
  5
1D27
100
AcDbEntity
  8
S2
100
AcDbCircle
 10
6.03655
 20
12.498426
 30
0.104814
 40
0.021944
100
AcDbArc
 50
206.334604
 51
334.02694
  0
ARC
  5
1D28
100
AcDbEntity
  8
S2
100
AcDbCircle
 10
6.017836
 20
12.507542
 30
0.104814
 40
0.04276
100
AcDbArc
 50
334.02694
 51
25.621643
  0
ARC
  5
1D29
100
AcDbEntity
  8
S2
100
AcDbCircle
 10
6.036485
 20
12.516486
 30
0.104814
 40
0.022077
100
AcDbArc
 50
25.621643
 51
154.844311
  0
ARC
  5
1D2A
100
AcDbEntity
  8
S2
100
AcDbCircle
 10
6.036616
 20
12.512446
 30
0.104814
 40
0.036814
100
AcDbArc
 50
17.226528
 51
163.450029
  0
ARC
  5
1D2B
100
AcDbEntity
  8
S2
100
AcDbCircle
 10
6.036686
 20
12.503899
 30
0.104814
 40
0.036928
100
AcDbArc
 50
196.014666
 51
345.191922
  0
LINE
  5
1D2C
100
AcDbEntity
  8
S2
100
AcDbLine
 10
6.336078
 20
12.49125
 30
0.104814
 11
6.349208
 21
12.49125
 31
0.104814
  0
ARC
  5
1D2D
100
AcDbEntity
  8
S2
100
AcDbCircle
 10
6.362712
 20
12.491381
 30
0.104814
 40
0.013504
100
AcDbArc
 50
180.553966
 51
247.78049
  0
ARC
  5
1D2E
100
AcDbEntity
  8
S2
100
AcDbCircle
 10
6.366264
 20
12.500078
 30
0.104814
 40
0.022899
100
AcDbArc
 50
247.78049
 51
307.228619
  0
ARC
  5
1D2F
100
AcDbEntity
  8
S2
100
AcDbCircle
 10
6.374331
 20
12.489462
 30
0.104814
 40
0.009566
100
AcDbArc
 50
307.228619
 51
76.989828
  0
ARC
  5
1D30
100
AcDbEntity
  8
S2
100
AcDbCircle
 10
8.02004
 20
19.612041
 30
0.104814
 40
7.300666
100
AcDbArc
 50
256.773529
 51
256.989828
  0
ARC
  5
1D31
100
AcDbEntity
  8
S2
100
AcDbCircle
 10
6.354342
 20
12.525033
 30
0.104814
 40
0.02054
100
AcDbArc
 50
180.790367
 51
256.773529
  0
ARC
  5
1D32
100
AcDbEntity
  8
S2
100
AcDbCircle
 10
6.358098
 20
12.525085
 30
0.104814
 40
0.024297
100
AcDbArc
 50
109.349998
 51
180.790367
  0
ARC
  5
1D33
100
AcDbEntity
  8
S2
100
AcDbCircle
 10
6.366627
 20
12.500798
 30
0.104814
 40
0.050038
100
AcDbArc
 50
77.081339
 51
109.349998
  0
ARC
  5
1D34
100
AcDbEntity
  8
S2
100
AcDbCircle
 10
6.372065
 20
12.524507
 30
0.104814
 40
0.025713
100
AcDbArc
 50
3.250563
 51
77.081339
  0
LINE
  5
1D35
100
AcDbEntity
  8
S2
100
AcDbLine
 10
6.397737
 20
12.525965
 30
0.104814
 11
6.381545
 21
12.525965
 31
0.104814
  0
ARC
  5
1D36
100
AcDbEntity
  8
S2
100
AcDbCircle
 10
6.369589
 20
12.52552
 30
0.104814
 40
0.011964
100
AcDbArc
 50
2.13138
 51
69.344284
  0
ARC
  5
1D37
100
AcDbEntity
  8
S2
100
AcDbCircle
 10
6.365832
 20
12.515552
 30
0.104814
 40
0.022616
100
AcDbArc
 50
69.344284
 51
113.985968
  0
ARC
  5
1D38
100
AcDbEntity
  8
S2
100
AcDbCircle
 10
6.360547
 20
12.527431
 30
0.104814
 40
0.009614
100
AcDbArc
 50
113.985968
 51
258.260528
  0
ARC
  5
1D39
100
AcDbEntity
  8
S2
100
AcDbCircle
 10
6.980632
 20
15.511356
 30
0.104814
 40
3.057288
100
AcDbArc
 50
258.260528
 51
258.709014
  0
ARC
  5
1D3A
100
AcDbEntity
  8
S2
100
AcDbCircle
 10
6.377569
 20
12.489861
 30
0.104814
 40
0.023803
100
AcDbArc
 50
30.923674
 51
79.173556
  0
ARC
  5
1D3B
100
AcDbEntity
  8
S2
100
AcDbCircle
 10
6.37971
 20
12.491144
 30
0.104814
 40
0.021307
100
AcDbArc
 50
344.020723
 51
30.923674
  0
ARC
  5
1D3C
100
AcDbEntity
  8
S2
100
AcDbCircle
 10
6.374813
 20
12.492546
 30
0.104814
 40
0.026401
100
AcDbArc
 50
291.948878
 51
344.020723
  0
ARC
  5
1D3D
100
AcDbEntity
  8
S2
100
AcDbCircle
 10
6.366978
 20
12.511987
 30
0.104814
 40
0.047361
100
AcDbArc
 50
251.946925
 51
291.948878
  0
ARC
  5
1D3E
100
AcDbEntity
  8
S2
100
AcDbCircle
 10
6.361157
 20
12.494127
 30
0.104814
 40
0.028576
100
AcDbArc
 50
204.158777
 51
251.946925
  0
LINE
  5
1D3F
100
AcDbEntity
  8
S2
100
AcDbLine
 10
7.107785
 20
12.155343
 30
0.0
 11
7.065785
 21
12.131094
 31
0.0
  0
LINE
  5
1D40
100
AcDbEntity
  8
S2
100
AcDbLine
 10
7.107785
 20
12.20384
 30
0.0
 11
7.107785
 21
12.155343
 31
0.0
  0
LINE
  5
1D41
100
AcDbEntity
  8
S2
100
AcDbLine
 10
7.065785
 20
12.228089
 30
0.0
 11
7.107785
 21
12.20384
 31
0.0
  0
LINE
  5
1D42
100
AcDbEntity
  8
S2
100
AcDbLine
 10
7.023785
 20
12.155343
 30
0.0
 11
7.023785
 21
12.20384
 31
0.0
  0
LINE
  5
1D43
100
AcDbEntity
  8
S2
100
AcDbLine
 10
7.023785
 20
12.20384
 30
0.0
 11
7.065785
 21
12.228089
 31
0.0
  0
LINE
  5
1D44
100
AcDbEntity
  8
S2
100
AcDbLine
 10
7.065785
 20
12.131094
 30
0.0
 11
7.023785
 21
12.155343
 31
0.0
  0
LINE
  5
1D45
100
AcDbEntity
  8
S2
100
AcDbLine
 10
6.539275
 20
13.14003
 30
0.0
 11
6.497275
 21
13.115782
 31
0.0
  0
LINE
  5
1D46
100
AcDbEntity
  8
S2
100
AcDbLine
 10
6.539275
 20
13.188528
 30
0.0
 11
6.539275
 21
13.14003
 31
0.0
  0
LINE
  5
1D47
100
AcDbEntity
  8
S2
100
AcDbLine
 10
6.497275
 20
13.212777
 30
0.0
 11
6.539275
 21
13.188528
 31
0.0
  0
LINE
  5
1D48
100
AcDbEntity
  8
S2
100
AcDbLine
 10
6.455275
 20
13.14003
 30
0.0
 11
6.455275
 21
13.188528
 31
0.0
  0
LINE
  5
1D49
100
AcDbEntity
  8
S2
100
AcDbLine
 10
6.455275
 20
13.188528
 30
0.0
 11
6.497275
 21
13.212777
 31
0.0
  0
LINE
  5
1D4A
100
AcDbEntity
  8
S2
100
AcDbLine
 10
6.497275
 20
13.115782
 30
0.0
 11
6.455275
 21
13.14003
 31
0.0
  0
LINE
  5
1D4B
100
AcDbEntity
  8
S2
100
AcDbLine
 10
5.970766
 20
12.155343
 30
0.0
 11
5.928766
 21
12.131094
 31
0.0
  0
LINE
  5
1D4C
100
AcDbEntity
  8
S2
100
AcDbLine
 10
5.970766
 20
12.20384
 30
0.0
 11
5.970766
 21
12.155343
 31
0.0
  0
LINE
  5
1D4D
100
AcDbEntity
  8
S2
100
AcDbLine
 10
5.928766
 20
12.228089
 30
0.0
 11
5.970766
 21
12.20384
 31
0.0
  0
LINE
  5
1D4E
100
AcDbEntity
  8
S2
100
AcDbLine
 10
5.886766
 20
12.155343
 30
0.0
 11
5.886766
 21
12.20384
 31
0.0
  0
LINE
  5
1D4F
100
AcDbEntity
  8
S2
100
AcDbLine
 10
5.886766
 20
12.20384
 30
0.0
 11
5.928766
 21
12.228089
 31
0.0
  0
LINE
  5
1D50
100
AcDbEntity
  8
S2
100
AcDbLine
 10
5.928766
 20
12.131094
 30
0.0
 11
5.886766
 21
12.155343
 31
0.0
  0
LINE
  5
1D51
100
AcDbEntity
  8
S2
100
AcDbLine
 10
8.849075
 20
13.117321
 30
0.0
 11
8.849075
 21
13.252321
 31
0.0
  0
LINE
  5
1D52
100
AcDbEntity
  8
S2
100
AcDbLine
 10
8.849075
 20
13.252321
 30
0.0
 11
8.931575
 21
13.252321
 31
0.0
  0
LINE
  5
1D53
100
AcDbEntity
  8
S2
100
AcDbLine
 10
8.931575
 20
13.252321
 30
0.0
 11
8.931575
 21
13.117321
 31
0.0
  0
LINE
  5
1D54
100
AcDbEntity
  8
S2
100
AcDbLine
 10
8.931575
 20
13.117321
 30
0.0
 11
8.849075
 21
13.117321
 31
0.0
  0
LINE
  5
1D55
100
AcDbEntity
  8
S2
100
AcDbLine
 10
8.931575
 20
13.142821
 30
0.0
 11
8.931575
 21
13.226821
 31
0.0
  0
ARC
  5
1D59
100
AcDbEntity
  8
S2
100
AcDbCircle
 10
6.186078
 20
12.105812
 30
0.0
 40
0.0425
100
AcDbArc
 50
90.0
 51
270.0
  0
LINE
  5
1D5A
100
AcDbEntity
  8
S2
100
AcDbLine
 10
6.134309
 20
12.105827
 30
0.0
 11
6.179309
 21
12.105827
 31
0.0
  0
ARC
  5
1D5B
100
AcDbEntity
  8
S2
100
AcDbCircle
 10
6.101078
 20
12.105812
 30
0.0
 40
0.0425
100
AcDbArc
 50
90.0
 51
270.0
  0
LINE
  5
1D5C
100
AcDbEntity
  8
HOUSING
100
AcDbLine
 10
9.506835
 20
11.767821
 30
0.0
 11
9.503085
 21
13.257821
 31
0.0
  0
LINE
  5
1D5D
100
AcDbEntity
  8
HOUSING
100
AcDbLine
 10
9.575988
 20
12.011071
 30
0.0
 11
9.575988
 21
13.004571
 31
0.0
  0
LINE
  5
1D5E
100
AcDbEntity
  8
HOUSING
100
AcDbLine
 10
9.56504
 20
12.014071
 30
0.0
 11
9.56504
 21
13.001571
 31
0.0
  0
LINE
  5
1D60
100
AcDbEntity
  8
HOUSING
100
AcDbLine
 10
9.616548
 20
12.01623
 30
0.0
 11
9.642117
 21
13.019571
 31
0.0
1001
ACAD
1000
ASC_BOUNDS
1002
{
1070
    19
1002
}
  0
LINE
  5
1D61
100
AcDbEntity
  8
HOUSING
100
AcDbLine
 10
9.591026
 20
11.996071
 30
0.0
 11
9.616727
 21
13.004571
 31
0.0
1001
ACAD
1000
ASC_BOUNDS
1002
{
1070
    19
1002
}
  0
LINE
  5
1D62
100
AcDbEntity
  8
HOUSING
100
AcDbLine
 10
9.641042
 20
11.996071
 30
0.0
 11
9.654075
 21
12.507502
 31
0.0
1001
ACAD
1000
ASC_BOUNDS
1002
{
1070
    19
1002
}
  0
LINE
  5
1D64
100
AcDbEntity
  8
HOUSING
100
AcDbLine
 10
9.575988
 20
12.387294
 30
0.0
 11
9.592101
 21
13.019571
 31
0.0
1001
ACAD
1000
ASC_BOUNDS
1002
{
1070
    19
1002
}
  0
LINE
  5
1D65
100
AcDbEntity
  8
S2
100
AcDbLine
 10
8.890515
 20
12.424321
 30
0.0
 11
8.775901
 21
12.424321
 31
0.0
  0
LINE
  5
1D66
100
AcDbEntity
  8
S2
100
AcDbLine
 10
8.775901
 20
12.599321
 30
0.0
 11
8.890515
 21
12.599321
 31
0.0
  0
LINE
  5
1D67
100
AcDbEntity
  8
S2
100
AcDbLine
 10
8.775901
 20
12.424321
 30
0.0
 11
8.775901
 21
12.599321
 31
0.0
  0
ARC
  5
1D68
100
AcDbEntity
  8
S2
100
AcDbCircle
 10
8.465066
 20
12.44291
 30
0.0
 40
0.050025
100
AcDbArc
 50
104.324647
 51
280.675353
  0
LINE
  5
1D69
100
AcDbEntity
  8
S2
100
AcDbLine
 10
8.835901
 20
12.599321
 30
0.0
 11
8.852182
 21
12.424321
 31
0.0
  0
LINE
  5
1D6A
100
AcDbEntity
  8
S2
100
AcDbLine
 10
8.815901
 20
12.599321
 30
0.0
 11
8.832182
 21
12.424321
 31
0.0
  0
LINE
  5
1D6B
100
AcDbEntity
  8
S2
100
AcDbLine
 10
8.875901
 20
12.599321
 30
0.0
 11
8.890515
 21
12.44224
 31
0.0
  0
LINE
  5
1D6C
100
AcDbEntity
  8
S2
100
AcDbLine
 10
8.855901
 20
12.599321
 30
0.0
 11
8.872182
 21
12.424321
 31
0.0
  0
LINE
  5
1D6D
100
AcDbEntity
  8
S2
100
AcDbLine
 10
8.795901
 20
12.599321
 30
0.0
 11
8.812182
 21
12.424321
 31
0.0
  0
LINE
  5
1D6E
100
AcDbEntity
  8
S2
100
AcDbLine
 10
8.775901
 20
12.599321
 30
0.0
 11
8.792182
 21
12.424321
 31
0.0
  0
LINE
  5
1D71
100
AcDbEntity
  8
S2
100
AcDbLine
 10
8.931575
 20
12.353321
 30
0.0
 11
8.890515
 21
12.353321
 31
0.0
  0
LINE
  5
1D72
100
AcDbEntity
  8
S2
100
AcDbLine
 10
8.890515
 20
12.670321
 30
0.0
 11
8.931575
 21
12.670321
 31
0.0
  0
LINE
  5
1D73
100
AcDbEntity
  8
S2
100
AcDbLine
 10
8.890515
 20
12.353321
 30
0.0
 11
8.890515
 21
12.670321
 31
0.0
  0
LINE
  5
1D74
100
AcDbEntity
  8
S2
100
AcDbLine
 10
8.931575
 20
11.968071
 30
0.0
 11
8.886575
 21
11.968071
 31
0.0
  0
LINE
  5
1D75
100
AcDbEntity
  8
S2
100
AcDbLine
 10
8.466575
 20
12.025071
 30
0.0
 11
8.886575
 21
12.025071
 31
0.0
  0
LINE
  5
1D77
100
AcDbEntity
  8
S2
100
AcDbLine
 10
8.505096
 20
12.400571
 30
0.0
 11
8.886575
 21
12.400571
 31
0.0
  0
LINE
  5
1D78
100
AcDbEntity
  8
S2
100
AcDbLine
 10
8.466575
 20
12.392908
 30
0.0
 11
8.466575
 21
12.025071
 31
0.0
  0
LINE
  5
1D79
100
AcDbEntity
  8
S2
100
AcDbLine
 10
8.886575
 20
12.424321
 30
0.0
 11
8.886575
 21
12.231078
 31
0.0
  0
CIRCLE
  5
1D7A
100
AcDbEntity
  8
S2
100
AcDbCircle
 10
8.641575
 20
12.212821
 30
0.0
 40
0.04
  0
LINE
  5
1D83
100
AcDbEntity
  8
S2
100
AcDbLine
 10
8.056575
 20
13.070321
 30
0.0
 11
8.931575
 21
13.070321
 31
0.0
  0
LINE
  5
1D84
100
AcDbEntity
  8
S2
100
AcDbLine
 10
8.056575
 20
12.585321
 30
0.0
 11
8.775901
 21
12.585321
 31
0.0
  0
LINE
  5
1D86
100
AcDbEntity
  8
S2
100
AcDbLine
 10
8.056575
 20
12.585321
 30
0.0
 11
8.056575
 21
13.070321
 31
0.0
1001
ACAD
1000
ASC_BOUNDS
1002
{
1070
    19
1002
}
  0
LINE
  5
1D8A
100
AcDbEntity
  8
S2
100
AcDbLine
 10
8.931575
 20
12.096078
 30
0.0
 11
8.849075
 21
12.096078
 31
0.0
  0
LINE
  5
1D8B
100
AcDbEntity
  8
S2
100
AcDbLine
 10
8.849075
 20
12.231078
 30
0.0
 11
8.931575
 21
12.231078
 31
0.0
  0
LINE
  5
1D8C
100
AcDbEntity
  8
S2
100
AcDbLine
 10
8.849075
 20
12.096078
 30
0.0
 11
8.849075
 21
12.231078
 31
0.0
  0
LINE
  5
1D8D
100
AcDbEntity
  8
S2
100
AcDbLine
 10
8.886575
 20
12.096078
 30
0.0
 11
8.886575
 21
11.968071
 31
0.0
  0
LINE
  5
1D96
100
AcDbEntity
  8
D1
  6
CONTINUOUS
100
AcDbLine
 10
9.528085
 20
13.257821
 30
0.0
 11
10.121169
 21
13.257821
 31
0.0
  0
LINE
  5
1D97
100
AcDbEntity
  8
D1
  6
CONTINUOUS
100
AcDbLine
 10
9.531835
 20
11.767821
 30
0.0
 11
10.121169
 21
11.767821
 31
0.0
  0
LINE
  5
1D98
100
AcDbEntity
  8
D1
  6
CONTINUOUS
100
AcDbLine
 10
10.097169
 20
13.157821
 30
0.0
 11
10.097169
 21
12.663129
 31
0.0
  0
LINE
  5
1D99
100
AcDbEntity
  8
D1
  6
CONTINUOUS
100
AcDbLine
 10
10.097169
 20
11.867821
 30
0.0
 11
10.097169
 21
12.363901
 31
0.0
  0
SOLID
  5
1D9A
100
AcDbEntity
  8
D1
  6
CONTINUOUS
100
AcDbTrace
 10
10.080502
 20
13.157821
 30
0.0
 11
10.113836
 21
13.157821
 31
0.0
 12
10.097169
 22
13.257821
 32
0.0
 13
10.097169
 23
13.257821
 33
0.0
  0
SOLID
  5
1D9B
100
AcDbEntity
  8
D1
  6
CONTINUOUS
100
AcDbTrace
 10
10.080502
 20
11.867821
 30
0.0
 11
10.113836
 21
11.867821
 31
0.0
 12
10.097169
 22
11.767821
 32
0.0
 13
10.097169
 23
11.767821
 33
0.0
  0
LINE
  5
1D9D
100
AcDbEntity
  8
D1
  6
CONTINUOUS
100
AcDbLine
 10
9.654075
 20
13.024571
 30
0.0
 11
9.654075
 21
13.687849
 31
0.0
  0
LINE
  5
1D9E
100
AcDbEntity
  8
D1
  6
CONTINUOUS
100
AcDbLine
 10
8.931575
 20
13.282821
 30
0.0
 11
8.931575
 21
13.687849
 31
0.0
  0
LINE
  5
1D9F
100
AcDbEntity
  8
D1
  6
CONTINUOUS
100
AcDbLine
 10
9.554075
 20
13.663849
 30
0.0
 11
9.502159
 21
13.663849
 31
0.0
  0
LINE
  5
1DA0
100
AcDbEntity
  8
D1
  6
CONTINUOUS
100
AcDbLine
 10
9.031575
 20
13.663849
 30
0.0
 11
9.083492
 21
13.663849
 31
0.0
  0
SOLID
  5
1DA1
100
AcDbEntity
  8
D1
  6
CONTINUOUS
100
AcDbTrace
 10
9.554075
 20
13.680516
 30
0.0
 11
9.554075
 21
13.647182
 31
0.0
 12
9.654075
 22
13.663849
 32
0.0
 13
9.654075
 23
13.663849
 33
0.0
  0
SOLID
  5
1DA2
100
AcDbEntity
  8
D1
  6
CONTINUOUS
100
AcDbTrace
 10
9.031575
 20
13.680516
 30
0.0
 11
9.031575
 21
13.647182
 31
0.0
 12
8.931575
 22
13.663849
 32
0.0
 13
8.931575
 23
13.663849
 33
0.0
  0
LINE
  5
1DA4
100
AcDbEntity
  8
D1
  6
CONTINUOUS
100
AcDbLine
 10
8.056575
 20
13.095321
 30
0.0
 11
8.056575
 21
13.687849
 31
0.0
  0
LINE
  5
1DA5
100
AcDbEntity
  8
D1
  6
CONTINUOUS
100
AcDbLine
 10
8.831575
 20
13.663849
 30
0.0
 11
8.707365
 21
13.663849
 31
0.0
  0
LINE
  5
1DA6
100
AcDbEntity
  8
D1
  6
CONTINUOUS
100
AcDbLine
 10
8.156575
 20
13.663849
 30
0.0
 11
8.274014
 21
13.663849
 31
0.0
  0
SOLID
  5
1DA7
100
AcDbEntity
  8
D1
  6
CONTINUOUS
100
AcDbTrace
 10
8.831575
 20
13.680516
 30
0.0
 11
8.831575
 21
13.647182
 31
0.0
 12
8.931575
 22
13.663849
 32
0.0
 13
8.931575
 23
13.663849
 33
0.0
  0
SOLID
  5
1DA8
100
AcDbEntity
  8
D1
  6
CONTINUOUS
100
AcDbTrace
 10
8.156575
 20
13.680516
 30
0.0
 11
8.156575
 21
13.647182
 31
0.0
 12
8.056575
 22
13.663849
 32
0.0
 13
8.056575
 23
13.663849
 33
0.0
  0
TEXT
  5
1DAA
100
AcDbEntity
  8
D1
100
AcDbText
 10
8.321206
 20
13.636673
 30
0.0
 40
0.08
  1
0.87"
100
AcDbText
  0
TEXT
  5
1DAB
100
AcDbEntity
  8
D1
100
AcDbText
 10
9.923836
 20
12.536941
 30
0.0
 40
0.08
  1
%%c1.50"
100
AcDbText
  0
TEXT
  5
1DAC
100
AcDbEntity
  8
D1
100
AcDbText
 10
9.119492
 20
13.636673
 30
0.0
 40
0.08
  1
0.72"
100
AcDbText
  0
TEXT
  5
1DAF
100
AcDbEntity
  8
D1
100
AcDbText
 10
8.297278
 20
11.114581
 30
0.0
 40
0.08
  1
SM1-SERIES THREAD
100
AcDbText
  0
TEXT
  5
1DB0
100
AcDbEntity
  8
D1
100
AcDbText
 10
8.297278
 20
10.981248
 30
0.0
 40
0.08
  1
%%c1.035-40 CLASS 2
100
AcDbText
  0
LEADER
  5
1DB1
100
AcDbEntity
  8
D1
100
AcDbLeader
  3
STANDARD
 73
     0
 40
0.08
 41
0.933333
 76
     3
 10
8.368956
 20
13.070321
 30
0.0
 10
7.975185
 20
13.322326
 30
0.0
 10
7.841284
 20
13.322326
 30
0.0
 77
   256
1001
ACAD
1000
DSTYLE
1002
{
1070
   140
1040
0.2
1070
   174
1070
     1
1070
    40
1040
0.4
1070
    44
1040
0.06
1070
   271
1070
     2
1070
    41
1040
0.25
1002
}
  0
LEADER
  5
1DB3
100
AcDbEntity
  8
D1
100
AcDbLeader
  3
STANDARD
 73
     0
 40
0.08
 41
1.013333
 76
     3
 10
8.416681
 20
12.455616
 30
0.0
 10
8.057694
 20
12.510689
 30
0.0
 10
7.963964
 20
12.510689
 30
0.0
 77
   256
1001
ACAD
1000
DSTYLE
1002
{
1070
   140
1040
0.2
1070
   174
1070
     1
1070
    40
1040
0.4
1070
    44
1040
0.06
1070
   271
1070
     2
1070
    41
1040
0.25
1002
}
  0
LEADER
  5
1DB5
100
AcDbEntity
  8
D1
100
AcDbLeader
  3
STANDARD
 73
     0
 40
0.08
 41
0.773333
 76
     3
 10
8.668444
 20
12.025071
 30
0.0
 10
8.443505
 20
11.881351
 30
0.0
 10
8.32969
 20
11.881351
 30
0.0
 77
   256
1001
ACAD
1000
DSTYLE
1002
{
1070
   140
1040
0.2
1070
   174
1070
     1
1070
    40
1040
0.4
1070
    44
1040
0.06
1070
   271
1070
     2
1070
    41
1040
0.25
1002
}
  0
LEADER
  5
1DB7
100
AcDbEntity
  8
D1
100
AcDbLeader
  3
STANDARD
 73
     0
 40
0.08
 41
0.773333
 76
     3
 10
12.250697
 20
12.374921
 30
0.0
 10
12.436861
 20
11.499013
 30
0.0
 10
12.232784
 20
11.499013
 30
0.0
 77
   256
1001
ACAD
1000
DSTYLE
1002
{
1070
   140
1040
0.2
1070
   174
1070
     1
1070
    40
1040
0.4
1070
    44
1040
0.06
1070
   271
1070
     2
1070
    41
1040
0.25
1002
}
  0
LEADER
  5
1DBA
100
AcDbEntity
  8
D1
100
AcDbLeader
  3
STANDARD
 73
     0
 40
0.213333
 41
1.213333
 76
     3
 10
9.259972
 20
11.767821
 30
0.0
 10
9.090717
 20
11.49433
 30
0.0
 10
8.956293
 20
11.49433
 30
0.0
 77
   256
1001
ACAD
1000
DSTYLE
1002
{
1070
   140
1040
0.2
1070
   174
1070
     1
1070
    40
1040
0.4
1070
    44
1040
0.06
1070
   271
1070
     2
1070
    41
1040
0.25
1002
}
  0
TEXT
  5
1DBC
100
AcDbEntity
  8
D1
100
AcDbText
 10
7.906959
 20
11.43969
 30
0.0
 40
0.08
  1
MOUNTING HOLE
100
AcDbText
  0
TEXT
  5
1DBD
100
AcDbEntity
  8
D1
100
AcDbText
 10
7.706959
 20
11.306356
 30
0.0
 40
0.08
  1
    #8-32 (M4)
100
AcDbText
  0
TEXT
  5
1DBE
100
AcDbEntity
  8
D1
100
AcDbText
 10
11.423451
 20
11.463153
 30
0.0
 40
0.08
  1
PHOTODIODE
100
AcDbText
  0
TEXT
  5
1DBF
100
AcDbEntity
  8
D1
100
AcDbText
 10
7.520356
 20
11.841351
 30
0.0
 40
0.08
  1
BNC OUTPUT
100
AcDbText
  0
TEXT
  5
1DC0
100
AcDbEntity
  8
D1
100
AcDbText
 10
7.497737
 20
12.460979
 30
0.0
 40
0.08
  1
ON/OFF  
100
AcDbText
  0
TEXT
  5
1DC1
100
AcDbEntity
  8
D1
100
AcDbText
 10
6.871951
 20
13.282326
 30
0.0
 40
0.08
  1
BATTERY TUBE
100
AcDbText
  0
TEXT
  5
1DC2
100
AcDbEntity
  8
D1
100
AcDbText
 10
8.991134
 20
13.515603
 30
0.0
 40
0.08
  1
(18.2mm)
100
AcDbText
  0
TEXT
  5
1DC3
100
AcDbEntity
  8
D1
100
AcDbText
 10
8.209963
 20
13.515603
 30
0.0
 40
0.08
  1
(22.2mm)
100
AcDbText
  0
TEXT
  5
1DC4
100
AcDbEntity
  8
D1
100
AcDbText
 10
9.778363
 20
12.415871
 30
0.0
 40
0.08
  1
(%%c38.1mm)
100
AcDbText
  0
LWPOLYLINE
  5
1E1C
100
AcDbEntity
  8
0
 62
     7
100
AcDbPolyline
 90
        4
 70
     1
 43
0.0
 10
10.572179
 20
11.917821
 10
10.572179
 20
13.107821
 10
10.852179
 20
13.107821
 10
10.852179
 20
11.917821
1001
ACAD
1000
ASC_BOUNDS
1002
{
1070
    19
1005
0
1005
1EEC
1005
1EEC
1002
}
  0
LINE
  5
1E22
100
AcDbEntity
  8
0
  6
HIDDEN
 62
     7
100
AcDbLine
 10
10.572179
 20
11.996071
 30
0.0
 11
10.852179
 21
11.996071
 31
0.0
1001
ACAD
1000
ASC_BOUNDS
1002
{
1070
    19
1005
1EEC
1002
}
  0
LINE
  5
1E23
100
AcDbEntity
  8
0
 62
     7
100
AcDbLine
 10
10.572179
 20
12.011071
 30
0.0
 11
10.852179
 21
12.011071
 31
0.0
  0
LINE
  5
1E24
100
AcDbEntity
  8
0
 62
     7
100
AcDbLine
 10
10.572179
 20
13.014571
 30
0.0
 11
10.852179
 21
13.014571
 31
0.0
  0
LINE
  5
1E25
100
AcDbEntity
  8
0
  6
HIDDEN
 62
     7
100
AcDbLine
 10
10.572179
 20
13.029571
 30
0.0
 11
10.852179
 21
13.029571
 31
0.0
1001
ACAD
1000
ASC_BOUNDS
1002
{
1070
    19
1005
1EEC
1002
}
  0
LINE
  5
1E45
100
AcDbEntity
  8
0
  6
HIDDEN
 62
     7
100
AcDbLine
 39
0.09
 10
11.131434
 20
12.011376
 30
0.0
 11
11.051434
 21
12.011376
 31
0.0
1001
ACAD
1000
ASC_BOUNDS
1002
{
1070
    19
1005
1EB6
1002
}
  0
LINE
  5
1E46
100
AcDbEntity
  8
0
  6
HIDDEN
 62
     7
100
AcDbLine
 39
0.09
 10
11.131434
 20
13.019265
 30
0.0
 11
11.051434
 21
13.019265
 31
0.0
1001
ACAD
1000
ASC_BOUNDS
1002
{
1070
    19
1005
1EB6
1002
}
  0
LINE
  5
1E47
100
AcDbEntity
  8
0
 62
     7
100
AcDbLine
 10
11.131434
 20
11.995321
 30
0.0
 11
11.051434
 21
11.995321
 31
0.0
  0
LINE
  5
1E48
100
AcDbEntity
  8
0
 62
     7
100
AcDbLine
 10
11.051434
 20
11.995321
 30
0.0
 11
11.051434
 21
13.030321
 31
0.0
1001
ACAD
1000
ASC_BOUNDS
1002
{
1070
    19
1005
1EB6
1005
1EB6
1002
}
  0
LINE
  5
1E49
100
AcDbEntity
  8
0
 62
     7
100
AcDbLine
 10
11.051434
 20
13.030321
 30
0.0
 11
11.131434
 21
13.030321
 31
0.0
  0
LINE
  5
1E4A
100
AcDbEntity
  8
0
 62
     7
100
AcDbLine
 10
11.131434
 20
13.030321
 30
0.0
 11
11.131434
 21
11.995321
 31
0.0
1001
ACAD
1000
ASC_BOUNDS
1002
{
1070
    19
1005
1EB6
1005
1EB6
1002
}
  0
LINE
  5
1E4B
100
AcDbEntity
  8
0
 62
     7
100
AcDbLine
 39
0.09
 10
11.131434
 20
12.062821
 30
0.0
 11
11.051434
 21
12.062821
 31
0.0
1001
ACAD
1000
ASC_BOUNDS
1002
{
1070
    19
1005
1EB6
1002
}
  0
LINE
  5
1E4C
100
AcDbEntity
  8
0
 62
     7
100
AcDbLine
 39
0.09
 10
11.131434
 20
12.962821
 30
0.0
 11
11.051434
 21
12.962821
 31
0.0
1001
ACAD
1000
ASC_BOUNDS
1002
{
1070
    19
1005
1EB6
1002
}
  0
LINE
  5
1E4D
100
AcDbEntity
  8
0
 62
     7
100
AcDbLine
 39
0.09
 10
11.131434
 20
12.062131
 30
0.0
 11
11.130745
 21
12.062821
 31
0.0
1001
ACAD
1000
ASC_BOUNDS
1002
{
1070
    19
1005
1EB6
1002
}
  0
LEADER
  5
1E59
100
AcDbEntity
  8
D1
100
AcDbLeader
  3
STANDARD
 73
     0
 40
0.192
 41
1.092
 76
     3
 10
11.103573
 20
13.030321
 30
0.0
 10
11.285352
 20
13.431656
 30
0.0
 10
11.411942
 20
13.431656
 30
0.0
 77
   256
  0
LINE
  5
1E5E
100
AcDbEntity
  8
D1
  6
CENTER2
100
AcDbLine
 10
11.417624
 20
12.512821
 30
0.0
 11
10.466833
 21
12.512821
 31
0.0
  0
INSERT
  5
1EB6
100
AcDbEntity
  8
0
 62
     7
100
AcDbBlockReference
  2
*X0
 10
-0.220007
 20
0.0
 30
0.0
1001
ACAD
1000
HATCH
1002
{
1070
    19
1000
ANSI31
1040
0.25
1040
1.570796
1000
ASC_BOUNDS
1070
     2
1070
     1
1070
     5
1005
1E4D
1005
1E4B
1005
1E48
1005
1E45
1005
1E4A
1070
     1
1070
     4
1005
1E46
1005
1E48
1005
1E4C
1005
1E4A
1000
ASC_SEEDPOINT
1011
4.193263
1021
0.478306
1031
0.0
1002
}
  0
INSERT
  5
1EEC
100
AcDbEntity
  8
0
 62
     7
100
AcDbBlockReference
  2
*X1
 10
-0.220007
 20
0.0
 30
0.0
1001
ACAD
1000
HATCH
1002
{
1070
    19
1000
ANSI31
1040
0.125
1040
4.712389
1000
ASC_BOUNDS
1070
     2
1070
     1
1070
     2
1005
1E22
1005
1E1C
1070
     1
1070
     2
1005
1E1C
1005
1E25
1000
ASC_SEEDPOINT
1011
3.771073
1021
0.553373
1031
0.0
1002
}
  0
TEXT
  5
1EFE
100
AcDbEntity
  8
D1
100
AcDbText
 10
7.497737
 20
12.33961
 30
0.0
 40
0.08
  1
SWITCH
100
AcDbText
  0
LINE
  5
1F01
100
AcDbEntity
  8
S2
100
AcDbLine
 10
8.773736
 20
12.47037
 30
0.0
 11
8.474333
 21
12.393751
 31
0.0
  0
LINE
  5
1F02
100
AcDbEntity
  8
S2
100
AcDbLine
 10
8.778065
 20
12.553272
 30
0.0
 11
8.452689
 21
12.49138
 31
0.0
  0
LEADER
  5
20C8
100
AcDbEntity
  8
D1
100
AcDbLeader
  3
STANDARD
 73
     0
 40
0.072
 76
     3
 10
9.619736
 20
11.996071
 30
0.0
 10
9.826552
 20
11.161914
 30
0.0
 10
9.694942
 20
11.161914
 30
0.0
 77
   256
  0
MTEXT
  5
20C9
100
AcDbEntity
  8
S2
100
AcDbMText
 10
9.658942
 20
11.161914
 30
0.0
 40
0.072
 41
0.0
 71
     6
 72
     5
  1

  0
LEADER
  5
20CB
100
AcDbEntity
  8
D1
100
AcDbLeader
  3
STANDARD
 73
     0
 40
0.192
 41
1.092
 76
     3
 10
10.743897
 20
13.107821
 30
0.0
 10
10.931001
 20
13.664964
 30
0.0
 10
11.048549
 20
13.664964
 30
0.0
 77
   256
211
-1.0
221
0.0
231
0.0
  0
TEXT
  5
20CE
100
AcDbEntity
  8
D1
100
AcDbText
 10
8.554489
 20
10.509286
 30
0.0
 40
0.15
  1
DET110
100
AcDbText
  0
LINE
  5
20CF
100
AcDbEntity
  8
D1
100
AcDbLine
 10
8.522972
 20
10.489141
 30
0.0
 11
9.401036
 21
10.489141
 31
0.0
  0
LINE
  5
20D0
100
AcDbEntity
  8
D1
100
AcDbLine
 10
9.452498
 20
10.460221
 30
0.0
 11
8.474727
 21
10.460221
 31
0.0
  0
TEXT
  5
20D1
100
AcDbEntity
  8
D1
100
AcDbText
 10
11.084549
 20
13.628358
 30
0.0
 40
0.072
  1
OPTIC MOUNT
100
AcDbText
  0
TEXT
  5
20D4
100
AcDbEntity
  8
D1
100
AcDbText
 10
11.447942
 20
13.396262
 30
0.0
 40
0.072
  1
RETAINING RING
100
AcDbText
  0
INSERT
  5
20DD
100
AcDbEntity
  8
S2
100
AcDbBlockReference
  2
*X2
 10
0.0
 20
0.0
 30
0.0
1001
ACAD
1000
HATCH
1002
{
1070
    19
1000
DOTS
1040
0.175
1040
0.0
1000
ASC_BOUNDS
1070
     1
1070
     1
1070
     4
1005
1CAC
1005
1CAB
1005
1CAE
1005
1CAD
1000
ASC_SEEDPOINT
1011
5.219094
1021
0.036272
1031
0.0
1002
}
  0
CIRCLE
  5
218B
100
AcDbEntity
  8
S2
100
AcDbCircle
 10
6.497275
 20
12.507821
 30
0.0
 40
0.73
  0
VIEWPORT
  5
31
100
AcDbEntity
 67
     1
  8
0
100
AcDbViewport
 10
8.127787
 20
5.912162
 30
0.0
 40
19.633394
 41
11.822487
 68
     2
 69
     1
1001
ACAD
1000
MVIEW
1002
{
1070
    16
1010
0.0
1020
0.0
1030
0.0
1010
0.0
1020
0.0
1030
1.0
1040
0.0
1040
11.822487
1040
8.127787
1040
5.912162
1040
50.0
1040
0.0
1040
0.0
1070
     0
1070
     0
1070
     0
1070
     0
1070
     0
1070
     0
1070
     0
1070
     0
1040
0.0
1040
0.0
1040
0.0
1040
0.005
1040
0.005
1040
0.25
1040
0.25
1070
     0
1002
{
1002
}
1002
}
  0
TRACE
  5
32
100
AcDbEntity
 67
     1
  8
BORDER
100
AcDbTrace
 10
0.105666
 20
11.76052
 30
0.0
 11
0.138016
 21
11.72817
 31
0.0
 12
16.149909
 22
11.76052
 32
0.0
 13
16.117559
 23
11.72817
 33
0.0
  0
TRACE
  5
33
100
AcDbEntity
 67
     1
  8
BORDER
100
AcDbTrace
 10
0.121841
 20
0.096154
 30
0.0
 11
0.121841
 21
0.063804
 31
0.0
 12
16.133734
 22
0.096154
 32
0.0
 13
16.133734
 23
0.063804
 33
0.0
  0
TRACE
  5
34
100
AcDbEntity
 67
     1
  8
BORDER
100
AcDbTrace
 10
0.105666
 20
0.079979
 30
0.0
 11
0.138016
 21
0.079979
 31
0.0
 12
0.105666
 22
11.76052
 32
0.0
 13
0.138016
 23
11.72817
 33
0.0
  0
TRACE
  5
35
100
AcDbEntity
 67
     1
  8
BORDER
100
AcDbTrace
 10
16.149909
 20
11.76052
 30
0.0
 11
16.117559
 21
11.72817
 31
0.0
 12
16.149909
 22
0.079979
 32
0.0
 13
16.117559
 23
0.079979
 33
0.0
  0
TRACE
  5
36
100
AcDbEntity
 67
     1
  8
BORDER
100
AcDbTrace
 10
12.749797
 20
1.463151
 30
0.17469
 11
12.749797
 21
1.443741
 31
0.17469
 12
16.141694
 22
1.463151
 32
0.17469
 13
16.141694
 23
1.443741
 33
0.17469
 39
0.17469
  0
LINE
  5
37
100
AcDbEntity
 67
     1
  8
BORDER
100
AcDbLine
 39
0.17469
 10
12.744944
 20
1.453446
 30
0.17469
 11
16.141694
 21
1.453446
 31
0.17469
  0
TRACE
  5
38
100
AcDbEntity
 67
     1
  8
BORDER
100
AcDbTrace
 10
16.141694
 20
1.734891
 30
0.17469
 11
16.141694
 21
1.754301
 31
0.17469
 12
12.749797
 22
1.734891
 32
0.17469
 13
12.749797
 23
1.754301
 33
0.17469
 39
0.17469
  0
TRACE
  5
39
100
AcDbEntity
 67
     1
  8
BORDER
100
AcDbTrace
 10
14.812109
 20
1.269051
 30
0.17469
 11
14.812109
 21
1.288461
 31
0.17469
 12
12.744944
 22
1.269051
 32
0.17469
 13
12.744944
 23
1.288461
 33
0.17469
 39
0.17469
  0
TRACE
  5
3A
100
AcDbEntity
 67
     1
  8
BORDER
100
AcDbTrace
 10
14.802404
 20
1.288461
 30
0.17469
 11
14.821814
 21
1.269051
 31
0.17469
 12
16.141694
 22
1.288461
 32
0.17469
 13
16.141694
 23
1.269051
 33
0.17469
 39
0.17469
  0
TRACE
  5
3B
100
AcDbEntity
 67
     1
  8
BORDER
100
AcDbTrace
 10
14.802404
 20
0.094156
 30
0.17469
 11
14.821814
 21
0.094156
 31
0.17469
 12
14.802404
 22
1.288461
 32
0.17469
 13
14.821814
 23
1.269051
 33
0.17469
 39
0.17469
  0
LINE
  5
3C
100
AcDbEntity
 67
     1
  8
BORDER
100
AcDbLine
 39
0.17469
 10
14.123054
 20
0.405306
 30
0.17469
 11
14.123054
 21
0.696456
 31
0.17469
  0
LINE
  5
3D
100
AcDbEntity
 67
     1
  8
BORDER
100
AcDbLine
 39
0.17469
 10
13.433999
 20
0.405306
 30
0.17469
 11
13.433999
 21
0.992458
 31
0.17469
  0
LINE
  5
3E
100
AcDbEntity
 67
     1
  8
BORDER
100
AcDbLine
 39
0.17469
 10
14.123054
 20
0.696456
 30
0.17469
 11
14.123054
 21
0.987606
 31
0.17469
  0
LINE
  5
3F
100
AcDbEntity
 67
     1
  8
BORDER
100
AcDbLine
 39
0.27
 10
13.778527
 20
0.696456
 30
0.0
 11
13.778527
 21
0.074042
 31
0.0
  0
TEXT
  5
40
100
AcDbEntity
 67
     1
  8
D1
100
AcDbText
 10
12.864296
 20
0.144042
 30
0.0
 40
0.11
  1
2199-E0W
100
AcDbText
  0
TEXT
  5
41
100
AcDbEntity
 67
     1
  8
D1
100
AcDbText
 10
13.589697
 20
0.739042
 30
0.0
 40
0.1
  1
SR
100
AcDbText
  0
TEXT
  5
42
100
AcDbEntity
 67
     1
  8
D1
100
AcDbText
 10
13.384684
 20
1.513135
 30
0.0
 40
0.11
  1
DET110 
100
AcDbText
  0
TEXT
  5
43
100
AcDbEntity
 67
     1
  8
BORDER
100
AcDbText
 10
12.832289
 20
1.327281
 30
0.17469
 40
0.067935
  1
TOL: X.XXX=+/-0.005 X.XX=+/-0.010 ANGULAR +/-30'
100
AcDbText
  0
TEXT
  5
44
100
AcDbEntity
 67
     1
  8
BORDER
100
AcDbText
 10
13.497082
 20
0.885703
 30
0.17469
 40
0.067935
  1
ENGR.
100
AcDbText
  0
LINE
  5
45
100
AcDbEntity
 67
     1
  8
BORDER
100
AcDbLine
 10
12.744944
 20
0.405306
 30
0.17469
 11
14.809868
 21
0.405306
 31
0.17469
  0
LINE
  5
46
100
AcDbEntity
 67
     1
  8
BORDER
100
AcDbLine
 10
12.744944
 20
0.696456
 30
0.17469
 11
14.809868
 21
0.696456
 31
0.17469
  0
LINE
  5
47
100
AcDbEntity
 67
     1
  8
BORDER
100
AcDbLine
 10
12.744944
 20
0.987606
 30
0.17469
 11
14.809868
 21
0.987606
 31
0.17469
  0
LINE
  5
48
100
AcDbEntity
 67
     1
  8
BORDER
100
AcDbLine
 10
12.744944
 20
1.278756
 30
0.17469
 11
16.141694
 21
1.278756
 31
0.17469
  0
TRACE
  5
49
100
AcDbEntity
 67
     1
  8
BORDER
100
AcDbTrace
 10
16.141694
 20
2.108533
 30
0.17469
 11
16.141694
 21
2.157058
 31
0.17469
 12
12.769207
 22
2.108533
 32
0.17469
 13
12.720682
 23
2.157058
 33
0.17469
  0
LINE
  5
4A
100
AcDbEntity
 67
     1
  8
BORDER
100
AcDbLine
 10
12.744944
 20
1.744596
 30
0.17469
 11
16.141694
 21
1.744596
 31
0.17469
  0
TRACE
  5
4B
100
AcDbEntity
 67
     1
  8
BORDER
100
AcDbTrace
 10
12.769207
 20
2.108533
 30
0.17469
 11
12.720682
 21
2.157058
 31
0.17469
 12
12.769207
 22
0.079156
 32
0.17469
 13
12.720682
 23
0.079156
 33
0.17469
  0
TEXT
  5
4C
100
AcDbEntity
 67
     1
  8
BORDER
100
AcDbText
 10
12.832289
 20
1.642693
 30
0.17469
 40
0.067935
  1
TITLE
100
AcDbText
  0
TEXT
  5
4D
100
AcDbEntity
 67
     1
  8
D1
100
AcDbText
 10
12.832095
 20
0.739042
 30
0.0
 40
0.1
  1
KL/AJG
100
AcDbText
  0
TEXT
  5
4E
100
AcDbEntity
 67
     1
  8
D1
100
AcDbText
 10
12.798058
 20
0.449042
 30
0.0
 40
0.08
  1
10/07/97
100
AcDbText
  0
TEXT
  5
4F
100
AcDbEntity
 67
     1
  8
BORDER
100
AcDbText
 10
12.837142
 20
0.599406
 30
0.17469
 40
0.067935
  1
DATE
100
AcDbText
  0
TEXT
  5
50
100
AcDbEntity
 67
     1
  8
BORDER
100
AcDbText
 10
12.837142
 20
0.308256
 30
0.17469
 40
0.067935
  1
DWG NO.
100
AcDbText
  0
TEXT
  5
51
100
AcDbEntity
 67
     1
  8
BORDER
100
AcDbText
 10
13.499272
 20
0.594553
 30
0.17469
 40
0.072788
  1
REV
100
AcDbText
  0
TEXT
  5
52
100
AcDbEntity
 67
     1
  8
BORDER
100
AcDbText
 10
12.832289
 20
1.172001
 30
0.17469
 40
0.067935
  1
MATERIAL
100
AcDbText
  0
TEXT
  5
53
100
AcDbEntity
 67
     1
  8
BORDER
100
AcDbText
 10
12.832289
 20
0.885703
 30
0.17469
 40
0.067935
  1
DRAWN
100
AcDbText
  0
TEXT
  5
54
100
AcDbEntity
 67
     1
  8
D1
100
AcDbText
 10
13.913021
 20
0.4538
 30
0.0
 40
0.075
  1
B
 72
     1
 11
13.938021
 21
0.4538
 31
0.0
100
AcDbText
  0
TEXT
  5
55
100
AcDbEntity
 67
     1
  8
BORDER
100
AcDbText
 10
13.828021
 20
0.5963
 30
0.0
 40
0.075
  1
SIZE
 72
     1
 11
13.953021
 21
0.5963
 31
0.0
100
AcDbText
  0
TEXT
  5
57
100
AcDbEntity
 67
     1
  8
D1
100
AcDbText
 10
14.599697
 20
0.449042
 30
0.0
 40
0.08
  1
2
100
AcDbText
  0
TEXT
  5
58
100
AcDbEntity
 67
     1
  8
BORDER
100
AcDbText
 10
14.855782
 20
1.172001
 30
0.17469
 40
0.067935
  1
WHERE USED
100
AcDbText
  0
LINE
  5
59
100
AcDbEntity
 67
     1
  8
BORDER
100
AcDbLine
 10
14.812109
 20
1.278756
 30
0.17469
 11
14.812109
 21
0.089303
 31
0.17469
  0
TEXT
  5
5A
100
AcDbEntity
 67
     1
  8
BORDER
100
AcDbText
 10
14.205547
 20
0.599406
 30
0.17469
 40
0.067935
  1
SHEET
100
AcDbText
  0
TEXT
  5
5B
100
AcDbEntity
 67
     1
  8
BORDER
100
AcDbText
 10
13.842142
 20
0.308256
 30
0.17469
 40
0.067935
  1
PART NO.
100
AcDbText
  0
TEXT
  5
5C
100
AcDbEntity
 67
     1
  8
BORDER
100
AcDbText
 10
14.421549
 20
0.448978
 30
0.17469
 40
0.067935
  1
OF
100
AcDbText
  0
TEXT
  5
5D
100
AcDbEntity
 67
     1
  8
BORDER
100
AcDbText
 10
14.186137
 20
0.885703
 30
0.17469
 40
0.067935
  1
APPROVED
100
AcDbText
  0
LWPOLYLINE
  5
5E
100
AcDbEntity
 67
     1
  8
BORDER
100
AcDbPolyline
 90
        2
 70
     0
 43
0.010918
 38
0.34938
 10
13.716883
 20
1.921031
 42
0.939934
 10
13.708702
 20
2.053011
 42
0.939934
  0
LWPOLYLINE
  5
62
100
AcDbEntity
 67
     1
  8
BORDER
100
AcDbPolyline
 90
        2
 70
     0
 43
0.010918
 38
0.34938
 10
13.763474
 20
1.863792
 42
0.358135
 10
13.717029
 20
1.91018
 42
0.358135
  0
SOLID
  5
66
100
AcDbEntity
 67
     1
  8
BORDER
100
AcDbTrace
 10
13.717043
 20
1.848631
 30
0.34938
 11
13.721256
 21
1.799453
 31
0.34938
 12
13.768907
 22
1.864328
 32
0.34938
 13
13.77489
 23
1.803604
 33
0.34938
  0
SOLID
  5
67
100
AcDbEntity
 67
     1
  8
BORDER
100
AcDbTrace
 10
13.717043
 20
1.848631
 30
0.34938
 11
13.768907
 21
1.864328
 31
0.34938
 12
13.718137
 22
1.864924
 32
0.34938
 13
13.76242
 23
1.880434
 33
0.34938
  0
SOLID
  5
68
100
AcDbEntity
 67
     1
  8
BORDER
100
AcDbTrace
 10
13.718137
 20
1.864924
 30
0.34938
 11
13.76242
 21
1.880434
 31
0.34938
 12
13.705591
 22
1.881911
 32
0.34938
 13
13.735112
 23
1.90259
 33
0.34938
  0
SOLID
  5
69
100
AcDbEntity
 67
     1
  8
BORDER
100
AcDbTrace
 10
13.712257
 20
1.934786
 30
0.34938
 11
13.733117
 21
1.92506
 31
0.34938
 12
13.731281
 22
1.977462
 32
0.34938
 13
13.773665
 23
1.96389
 33
0.34938
  0
SOLID
  5
6A
100
AcDbEntity
 67
     1
  8
BORDER
100
AcDbTrace
 10
13.731281
 20
1.977462
 30
0.34938
 11
13.773665
 21
1.96389
 31
0.34938
 12
13.72563
 22
2.000082
 32
0.34938
 13
13.768014
 23
2.022136
 33
0.34938
  0
SOLID
  5
6B
100
AcDbEntity
 67
     1
  8
BORDER
100
AcDbTrace
 10
13.72563
 20
2.000082
 30
0.34938
 11
13.768014
 21
2.022136
 31
0.34938
 12
13.706981
 22
2.019874
 32
0.34938
 13
13.726195
 23
2.050976
 33
0.34938
  0
SOLID
  5
6C
100
AcDbEntity
 67
     1
  8
BORDER
100
AcDbTrace
 10
13.725784
 20
1.785517
 30
0.34938
 11
13.782059
 21
1.785517
 31
0.34938
 12
13.723206
 22
1.793107
 32
0.34938
 13
13.773836
 23
1.798429
 33
0.34938
  0
SOLID
  5
6D
100
AcDbEntity
 67
     1
  8
BORDER
100
AcDbTrace
 10
13.723206
 20
1.793107
 30
0.34938
 11
13.773836
 21
1.798429
 31
0.34938
 12
13.721256
 22
1.799453
 32
0.34938
 13
13.77489
 23
1.803604
 33
0.34938
  0
SOLID
  5
6E
100
AcDbEntity
 67
     1
  8
BORDER
100
AcDbTrace
 10
13.076166
 20
2.05847
 30
0.34938
 11
13.130756
 21
2.05847
 31
0.34938
 12
13.076166
 22
1.785517
 32
0.34938
 13
13.130756
 23
1.785517
 33
0.34938
  0
SOLID
  5
6F
100
AcDbEntity
 67
     1
  8
BORDER
100
AcDbTrace
 10
12.93423
 20
1.785517
 30
0.34938
 11
12.988821
 21
1.785517
 31
0.34938
 12
12.93423
 22
2.013433
 32
0.34938
 13
12.988821
 23
2.013433
 33
0.34938
  0
SOLID
  5
70
100
AcDbEntity
 67
     1
  8
BORDER
100
AcDbTrace
 10
12.846885
 20
2.05847
 30
0.34938
 11
13.076166
 21
2.05847
 31
0.34938
 12
12.846885
 22
2.013433
 32
0.34938
 13
13.076166
 23
2.013433
 33
0.34938
  0
LWPOLYLINE
  5
71
100
AcDbEntity
 67
     1
  8
BORDER
100
AcDbPolyline
 90
        4
 70
     1
 43
0.010918
 38
0.34938
 10
13.361175
 20
1.982948
 42
0.228527
 10
13.36245
 20
1.859016
 42
0.623004
 10
13.493762
 20
1.859431
 42
0.229006
 10
13.494142
 20
1.983489
 42
0.632312
  0
LWPOLYLINE
  5
77
100
AcDbEntity
 67
     1
  8
BORDER
100
AcDbPolyline
 90
        2
 70
     0
 43
0.010918
 38
0.34938
 10
13.545433
 20
1.974541
 42
0.741471
 10
13.310596
 20
1.973154
 42
0.741471
  0
LWPOLYLINE
  5
7B
100
AcDbEntity
 67
     1
  8
BORDER
100
AcDbPolyline
 90
        2
 70
     0
 43
0.010918
 38
0.34938
 10
13.310141
 20
1.875747
 42
0.761639
 10
13.547465
 20
1.878246
 42
0.761639
  0
SOLID
  5
7F
100
AcDbEntity
 67
     1
  8
BORDER
100
AcDbTrace
 10
13.427434
 20
2.064008
 30
0.34938
 11
13.426281
 21
2.02478
 31
0.34938
 12
13.354794
 22
2.038625
 32
0.34938
 13
13.375548
 23
2.007473
 33
0.34938
  0
SOLID
  5
80
100
AcDbEntity
 67
     1
  8
BORDER
100
AcDbTrace
 10
13.379422
 20
1.793568
 30
0.34938
 11
13.399335
 21
1.821925
 31
0.34938
 12
13.428439
 22
1.784371
 32
0.34938
 13
13.428439
 23
1.818859
 33
0.34938
  0
LWPOLYLINE
  5
81
100
AcDbEntity
 67
     1
  8
BORDER
100
AcDbPolyline
 90
        2
 70
     0
 43
0.010918
 38
0.34938
 10
13.310596
 20
1.973154
 42
0.143054
 10
13.310141
 20
1.875747
 42
0.143054
  0
SOLID
  5
85
100
AcDbEntity
 67
     1
  8
BORDER
100
AcDbTrace
 10
13.302067
 20
1.921558
 30
0.34938
 11
13.346489
 21
1.917726
 31
0.34938
 12
13.32198
 22
1.843384
 32
0.34938
 13
13.361041
 23
1.857946
 33
0.34938
  0
SOLID
  5
86
100
AcDbEntity
 67
     1
  8
BORDER
100
AcDbTrace
 10
13.244032
 20
2.05847
 30
0.34938
 11
13.298622
 21
2.05847
 31
0.34938
 12
13.244032
 22
1.785517
 32
0.34938
 13
13.298622
 23
1.785517
 33
0.34938
  0
SOLID
  5
87
100
AcDbEntity
 67
     1
  8
BORDER
100
AcDbTrace
 10
13.32198
 20
1.843384
 30
0.34938
 11
13.361041
 21
1.857946
 31
0.34938
 12
13.379422
 22
1.793568
 32
0.34938
 13
13.399335
 23
1.821925
 33
0.34938
  0
SOLID
  5
88
100
AcDbEntity
 67
     1
  8
BORDER
100
AcDbTrace
 10
13.244032
 20
1.952019
 30
0.34938
 11
13.130756
 21
1.952019
 31
0.34938
 12
13.244032
 22
1.905617
 32
0.34938
 13
13.130756
 23
1.905617
 33
0.34938
  0
SOLID
  5
89
100
AcDbEntity
 67
     1
  8
BORDER
100
AcDbTrace
 10
13.354794
 20
2.038625
 30
0.34938
 11
13.375548
 21
2.007473
 31
0.34938
 12
13.317897
 22
1.997089
 32
0.34938
 13
13.3571
 23
1.969398
 33
0.34938
  0
SOLID
  5
8A
100
AcDbEntity
 67
     1
  8
BORDER
100
AcDbTrace
 10
13.317897
 20
1.997089
 30
0.34938
 11
13.3571
 21
1.969398
 31
0.34938
 12
13.302067
 22
1.921558
 32
0.34938
 13
13.346489
 23
1.917726
 33
0.34938
  0
SOLID
  5
8B
100
AcDbEntity
 67
     1
  8
BORDER
100
AcDbTrace
 10
13.558039
 20
1.785517
 30
0.34938
 11
13.558039
 21
2.05847
 31
0.34938
 12
13.613799
 22
1.785517
 32
0.34938
 13
13.613799
 23
2.052523
 33
0.34938
  0
LWPOLYLINE
  5
8C
100
AcDbEntity
 67
     1
  8
BORDER
100
AcDbPolyline
 90
        2
 70
     0
 43
0.010918
 38
0.34938
 10
13.722482
 20
1.849097
 42
0.389398
 10
13.666963
 20
1.900063
 42
0.389398
  0
LWPOLYLINE
  5
90
100
AcDbEntity
 67
     1
  8
BORDER
100
AcDbPolyline
 90
        2
 70
     0
 43
0.010918
 38
0.34938
 10
13.547465
 20
1.878246
 42
0.140695
 10
13.545433
 20
1.974541
 42
0.140695
  0
SOLID
  5
94
100
AcDbEntity
 67
     1
  8
BORDER
100
AcDbTrace
 10
13.499667
 20
1.808896
 30
0.34938
 11
13.48052
 21
1.834954
 31
0.34938
 12
13.537962
 22
1.851815
 32
0.34938
 13
13.505795
 23
1.885537
 33
0.34938
  0
SOLID
  5
95
100
AcDbEntity
 67
     1
  8
BORDER
100
AcDbTrace
 10
13.537962
 20
1.851815
 30
0.34938
 11
13.505795
 21
1.885537
 31
0.34938
 12
13.554812
 22
1.933054
 32
0.34938
 13
13.507326
 23
1.937652
 33
0.34938
  0
SOLID
  5
96
100
AcDbEntity
 67
     1
  8
BORDER
100
AcDbTrace
 10
13.428439
 20
1.784371
 30
0.34938
 11
13.428439
 21
1.818859
 31
0.34938
 12
13.499667
 22
1.808896
 32
0.34938
 13
13.48052
 23
1.834954
 33
0.34938
  0
LWPOLYLINE
  5
97
100
AcDbEntity
 67
     1
  8
BORDER
100
AcDbPolyline
 90
        2
 70
     0
 43
0.010918
 38
0.34938
 10
13.726695
 20
1.799919
 42
0.114836
 10
13.730458
 20
1.788337
 42
0.114836
  0
LWPOLYLINE
  5
9B
100
AcDbEntity
 67
     1
  8
BORDER
100
AcDbPolyline
 90
        2
 70
     0
 43
0.010918
 38
0.34938
 10
13.708702
 20
2.053011
 10
13.558039
 20
2.053011
  0
SOLID
  5
9F
100
AcDbEntity
 67
     1
  8
BORDER
100
AcDbTrace
 10
13.554812
 20
1.933054
 30
0.34938
 11
13.507326
 21
1.937652
 31
0.34938
 12
13.531835
 22
2.01046
 32
0.34938
 13
13.491243
 23
1.9913
 33
0.34938
  0
SOLID
  5
A0
100
AcDbEntity
 67
     1
  8
BORDER
100
AcDbTrace
 10
13.531835
 20
2.01046
 30
0.34938
 11
13.491243
 21
1.9913
 31
0.34938
 12
13.477457
 22
2.053379
 32
0.34938
 13
13.46367
 23
2.014293
 33
0.34938
  0
SOLID
  5
A1
100
AcDbEntity
 67
     1
  8
BORDER
100
AcDbTrace
 10
13.477457
 20
2.053379
 30
0.34938
 11
13.46367
 21
2.014293
 31
0.34938
 12
13.427434
 22
2.064008
 32
0.34938
 13
13.426281
 23
2.02478
 33
0.34938
  0
LWPOLYLINE
  5
A2
100
AcDbEntity
 67
     1
  8
BORDER
100
AcDbPolyline
 90
        2
 70
     0
 43
0.010918
 38
0.34938
 10
13.683555
 20
1.930291
 42
1.0
 10
13.683555
 20
2.022317
 42
1.0
  0
SOLID
  5
A6
100
AcDbEntity
 67
     1
  8
BORDER
100
AcDbTrace
 10
13.613799
 20
2.016858
 30
0.34938
 11
13.613799
 21
2.052523
 31
0.34938
 12
13.683555
 22
2.016858
 32
0.34938
 13
13.708702
 23
2.05847
 33
0.34938
  0
SOLID
  5
A7
100
AcDbEntity
 67
     1
  8
BORDER
100
AcDbTrace
 10
13.613799
 20
1.93575
 30
0.34938
 11
13.613799
 21
1.894604
 31
0.34938
 12
13.683555
 22
1.93575
 32
0.34938
 13
13.666963
 23
1.894604
 33
0.34938
  0
SOLID
  5
A8
100
AcDbEntity
 67
     1
  8
BORDER
100
AcDbTrace
 10
13.705591
 20
1.881911
 30
0.34938
 11
13.735112
 21
1.90259
 31
0.34938
 12
13.690779
 22
1.896652
 32
0.34938
 13
13.717557
 23
1.915614
 33
0.34938
  0
SOLID
  5
A9
100
AcDbEntity
 67
     1
  8
BORDER
100
AcDbTrace
 10
13.690779
 20
1.896652
 30
0.34938
 11
13.717557
 21
1.915614
 31
0.34938
 12
13.666963
 22
1.894604
 32
0.34938
 13
13.683555
 23
1.93575
 33
0.34938
  0
SOLID
  5
AA
100
AcDbEntity
 67
     1
  8
BORDER
100
AcDbTrace
 10
13.706981
 20
2.019874
 30
0.34938
 11
13.726195
 21
2.050976
 31
0.34938
 12
13.683555
 22
2.016858
 32
0.34938
 13
13.708702
 23
2.05847
 33
0.34938
  0
SOLID
  5
AB
100
AcDbEntity
 67
     1
  8
BORDER
100
AcDbTrace
 10
13.712257
 20
1.934786
 30
0.34938
 11
13.733117
 21
1.92506
 31
0.34938
 12
13.683555
 22
1.93575
 32
0.34938
 13
13.717557
 23
1.915614
 33
0.34938
  0
TEXT
  5
AC
100
AcDbEntity
 67
     1
  8
BORDER
100
AcDbText
 10
14.965664
 20
1.960207
 30
0.34938
 40
0.109181
  1
PO BOX 366
100
AcDbText
  0
TEXT
  5
AD
100
AcDbEntity
 67
     1
  8
BORDER
100
AcDbText
 10
14.965664
 20
1.778238
 30
0.34938
 40
0.109181
  1
NEWTON NJ
100
AcDbText
  0
ARC
  5
AE
100
AcDbEntity
 67
     1
  8
BORDER
100
AcDbCircle
 10
14.35698
 20
1.860495
 30
0.34938
 40
0.069808
100
AcDbArc
 50
297.452648
 51
341.332312
  0
ARC
  5
AF
100
AcDbEntity
 67
     1
  8
BORDER
100
AcDbCircle
 10
14.366706
 20
1.989406
 30
0.34938
 40
0.052103
100
AcDbArc
 50
313.157563
 51
358.653261
  0
ARC
  5
B0
100
AcDbEntity
 67
     1
  8
BORDER
100
AcDbCircle
 10
14.357376
 20
1.989626
 30
0.34938
 40
0.061436
100
AcDbArc
 50
358.653261
 51
58.670206
  0
LWPOLYLINE
  5
B1
100
AcDbEntity
 67
     1
  8
BORDER
100
AcDbPolyline
 90
       14
 70
     0
 43
0.0
 38
0.34938
 10
14.426431
 20
1.867546
 10
14.470198
 20
1.867546
 42
0.302044
 10
14.498187
 20
1.826311
 42
0.26537
 10
14.573231
 20
1.836196
 42
0.635606
 10
14.561118
 20
1.892652
 42
-0.000944
 10
14.471646
 20
1.913503
 42
-0.344245
 10
14.41885
 20
1.97921
 42
-0.322222
 10
14.472996
 20
2.056742
 42
-0.141736
 10
14.56555
 20
2.061941
 42
-0.333774
 10
14.63196
 20
1.983261
 10
14.577987
 20
1.983261
 42
0.301979
 10
14.552203
 20
2.019094
 42
0.197288
 10
14.494965
 20
2.01743
 42
0.728374
 10
14.501472
 20
1.956771
 42
0.001957
  0
ARC
  5
C1
100
AcDbEntity
 67
     1
  8
BORDER
100
AcDbCircle
 10
14.35698
 20
1.860495
 30
0.34938
 40
0.069808
100
AcDbArc
 50
5.797667
 51
41.821431
  0
LINE
  5
C2
100
AcDbEntity
 67
     1
  8
BORDER
100
AcDbLine
 10
14.043087
 20
1.885145
 30
0.34938
 11
14.122274
 21
1.885145
 31
0.34938
  0
LINE
  5
C3
100
AcDbEntity
 67
     1
  8
BORDER
100
AcDbLine
 10
14.08268
 20
2.01367
 30
0.34938
 11
14.043087
 21
1.885145
 31
0.34938
  0
LWPOLYLINE
  5
C4
100
AcDbEntity
 67
     1
  8
BORDER
100
AcDbPolyline
 90
        4
 70
     0
 43
0.0
 38
0.34938
 10
14.134887
 20
1.844202
 10
14.030474
 20
1.844202
 10
14.012395
 20
1.785517
 10
13.955075
 20
1.785517
  0
LWPOLYLINE
  5
CA
100
AcDbEntity
 67
     1
  8
BORDER
100
AcDbPolyline
 90
        4
 70
     0
 43
0.0
 38
0.34938
 10
13.971547
 20
1.831919
 10
14.051973
 20
2.05847
 10
14.113388
 20
2.05847
 10
14.203433
 20
1.804822
  0
LINE
  5
D0
100
AcDbEntity
 67
     1
  8
BORDER
100
AcDbLine
 10
13.837705
 20
1.831919
 30
0.34938
 11
13.837705
 21
2.05847
 31
0.34938
  0
LINE
  5
D1
100
AcDbEntity
 67
     1
  8
BORDER
100
AcDbLine
 10
13.780385
 20
2.05847
 30
0.34938
 11
13.780385
 21
1.785517
 31
0.34938
  0
LINE
  5
D2
100
AcDbEntity
 67
     1
  8
BORDER
100
AcDbLine
 10
13.780385
 20
1.785517
 30
0.34938
 11
13.974181
 21
1.785517
 31
0.34938
  0
LINE
  5
D3
100
AcDbEntity
 67
     1
  8
BORDER
100
AcDbLine
 10
13.971547
 20
1.831919
 30
0.34938
 11
13.837705
 21
1.831919
 31
0.34938
  0
LWPOLYLINE
  5
D4
100
AcDbEntity
 67
     1
  8
BORDER
100
AcDbPolyline
 90
        2
 70
     0
 43
0.010918
 38
0.34938
 10
13.769457
 20
1.803068
 42
0.095067
 10
13.773817
 20
1.788338
 42
0.140492
  0
LINE
  5
D8
100
AcDbEntity
 67
     1
  8
BORDER
100
AcDbLine
 10
13.837705
 20
2.05847
 30
0.34938
 11
13.780385
 21
2.05847
 31
0.34938
  0
ARC
  5
D9
100
AcDbEntity
 67
     1
  8
BORDER
100
AcDbCircle
 10
14.33057
 20
1.868797
 30
0.34938
 40
0.038184
100
AcDbArc
 50
313.227508
 51
90.0
  0
LINE
  5
DA
100
AcDbEntity
 67
     1
  8
BORDER
100
AcDbLine
 10
14.258023
 20
1.906981
 30
0.34938
 11
14.258023
 21
1.827825
 31
0.34938
  0
LINE
  5
DB
100
AcDbEntity
 67
     1
  8
BORDER
100
AcDbLine
 10
14.203433
 20
2.05847
 30
0.34938
 11
14.203433
 21
1.804822
 31
0.34938
  0
LINE
  5
DC
100
AcDbEntity
 67
     1
  8
BORDER
100
AcDbLine
 10
14.203433
 20
1.785517
 30
0.34938
 11
14.335815
 21
1.785517
 31
0.34938
  0
LWPOLYLINE
  5
DD
100
AcDbEntity
 67
     1
  8
BORDER
100
AcDbPolyline
 90
        3
 70
     0
 43
0.0
 38
0.34938
 10
14.210286
 20
1.785517
 10
14.152966
 20
1.785517
 10
14.134887
 20
1.844202
  0
ARC
  5
E2
100
AcDbEntity
 67
     1
  8
BORDER
100
AcDbCircle
 10
14.323532
 20
1.876285
 30
0.34938
 40
0.04846
100
AcDbArc
 50
270.0
 51
313.227508
  0
LINE
  5
E3
100
AcDbEntity
 67
     1
  8
BORDER
100
AcDbLine
 10
14.258023
 20
1.827825
 30
0.34938
 11
14.323532
 21
1.827825
 31
0.34938
  0
ARC
  5
E4
100
AcDbEntity
 67
     1
  8
BORDER
100
AcDbCircle
 10
14.335815
 20
1.901235
 30
0.34938
 40
0.115718
100
AcDbArc
 50
270.0
 51
297.452648
  0
LINE
  5
E5
100
AcDbEntity
 67
     1
  8
BORDER
100
AcDbLine
 10
14.330957
 20
2.05847
 30
0.34938
 11
14.203433
 21
2.05847
 31
0.34938
  0
LINE
  5
E6
100
AcDbEntity
 67
     1
  8
BORDER
100
AcDbLine
 10
14.122274
 20
1.885145
 30
0.34938
 11
14.08268
 21
2.01367
 31
0.34938
  0
LINE
  5
E7
100
AcDbEntity
 67
     1
  8
BORDER
100
AcDbLine
 10
14.33057
 20
1.906981
 30
0.34938
 11
14.258023
 21
1.906981
 31
0.34938
  0
ARC
  5
E8
100
AcDbEntity
 67
     1
  8
BORDER
100
AcDbCircle
 10
14.327044
 20
1.983408
 30
0.34938
 40
0.034119
100
AcDbArc
 50
270.0
 51
90.000005
  0
LINE
  5
E9
100
AcDbEntity
 67
     1
  8
BORDER
100
AcDbLine
 10
14.258023
 20
1.949289
 30
0.34938
 11
14.327044
 21
1.949289
 31
0.34938
  0
LINE
  5
EA
100
AcDbEntity
 67
     1
  8
BORDER
100
AcDbLine
 10
14.258023
 20
2.017527
 30
0.34938
 11
14.258023
 21
1.949289
 31
0.34938
  0
LINE
  5
EB
100
AcDbEntity
 67
     1
  8
BORDER
100
AcDbLine
 10
14.327044
 20
2.017527
 30
0.34938
 11
14.258023
 21
2.017527
 31
0.34938
  0
ARC
  5
EC
100
AcDbEntity
 67
     1
  8
BORDER
100
AcDbCircle
 10
14.330957
 20
1.946225
 30
0.34938
 40
0.112245
100
AcDbArc
 50
58.670206
 51
90.0
  0
ARC
  5
ED
100
AcDbEntity
 67
     1
  8
BORDER
100
AcDbCircle
 10
14.335982
 20
1.841706
 30
0.34938
 40
0.097985
100
AcDbArc
 50
41.821431
 51
67.21117
  0
ARC
  5
EE
100
AcDbEntity
 67
     1
  8
BORDER
100
AcDbCircle
 10
14.326262
 20
2.03254
 30
0.34938
 40
0.111232
100
AcDbArc
 50
295.378395
 51
313.157563
  0
SOLID
  5
EF
100
AcDbEntity
 67
     1
  8
BORDER
100
AcDbTrace
 10
14.683586
 20
1.778584
 30
0.34938
 11
14.683586
 21
1.805547
 31
0.34938
 12
14.811983
 22
1.778584
 32
0.34938
 13
14.811983
 23
1.805547
 33
0.34938
  0
SOLID
  5
F0
100
AcDbEntity
 67
     1
  8
BORDER
100
AcDbTrace
 10
14.811983
 20
1.828017
 30
0.34938
 11
14.683586
 21
1.828017
 31
0.34938
 12
14.811983
 22
1.85498
 32
0.34938
 13
14.683586
 23
1.85498
 33
0.34938
  0
SOLID
  5
F1
100
AcDbEntity
 67
     1
  8
BORDER
100
AcDbTrace
 10
14.683586
 20
1.937154
 30
0.34938
 11
14.811983
 21
1.937154
 31
0.34938
 12
14.683586
 22
1.910191
 32
0.34938
 13
14.811983
 23
1.910191
 33
0.34938
  0
SOLID
  5
F2
100
AcDbEntity
 67
     1
  8
BORDER
100
AcDbTrace
 10
14.683586
 20
1.855622
 30
0.34938
 11
14.81198
 21
1.936463
 31
0.34938
 12
14.683595
 22
1.829892
 32
0.34938
 13
14.811983
 23
1.909549
 33
0.34938
  0
LWPOLYLINE
  5
F3
100
AcDbEntity
 67
     1
  8
BORDER
100
AcDbPolyline
 90
        6
 70
     0
 43
0.005136
 38
0.34938
 10
14.722736
 20
2.041629
 42
0.342627
 10
14.697973
 20
2.015297
 42
0.294281
 10
14.715619
 20
1.981228
 42
0.273538
 10
14.779841
 20
1.982096
 42
0.20817
 10
14.796164
 20
2.005312
 42
0.418985
 10
14.770998
 20
2.042799
 42
0.418985
  0
LWPOLYLINE
  5
FB
100
AcDbEntity
 67
     1
  8
BORDER
100
AcDbPolyline
 90
        2
 70
     0
 43
0.005136
 38
0.34938
 10
14.719873
 20
1.9573
 42
0.270661
 10
14.792793
 20
1.968664
 42
0.270661
  0
SOLID
  5
FF
100
AcDbEntity
 67
     1
  8
BORDER
100
AcDbTrace
 10
14.72525
 20
1.975351
 30
0.34938
 11
14.712073
 21
1.959596
 31
0.34938
 12
14.751605
 22
1.973235
 32
0.34938
 13
14.753017
 23
1.951365
 33
0.34938
  0
LWPOLYLINE
  5
100
100
AcDbEntity
 67
     1
  8
BORDER
100
AcDbPolyline
 90
        7
 70
     0
 43
0.0
 38
0.34938
 10
14.501472
 20
1.956771
 42
0.001957
 10
14.579637
 20
1.940847
 42
-0.213696
 10
14.632798
 20
1.90369
 42
-0.207559
 10
14.64015
 20
1.847639
 42
-0.231198
 10
14.588441
 20
1.790241
 42
-0.176336
 10
14.480508
 20
1.78657
 42
-0.211591
 10
14.423116
 20
1.838151
  0
LWPOLYLINE
  5
109
100
AcDbEntity
 67
     1
  8
BORDER
100
AcDbPolyline
 90
        2
 70
     0
 43
0.005136
 38
0.34938
 10
14.685568
 20
2.030528
 42
0.398621
 10
14.719873
 20
1.9573
 42
0.398621
  0
SOLID
  5
10D
100
AcDbEntity
 67
     1
  8
BORDER
100
AcDbTrace
 10
14.71419
 20
2.039314
 30
0.34938
 11
14.701248
 21
2.053424
 31
0.34938
 12
14.698189
 22
2.022148
 32
0.34938
 13
14.683364
 23
2.028262
 33
0.34938
  0
SOLID
  5
10E
100
AcDbEntity
 67
     1
  8
BORDER
100
AcDbTrace
 10
14.698189
 20
2.022148
 30
0.34938
 11
14.683364
 21
2.028262
 31
0.34938
 12
14.700777
 22
1.994869
 32
0.34938
 13
14.685247
 23
1.98852
 33
0.34938
  0
SOLID
  5
10F
100
AcDbEntity
 67
     1
  8
BORDER
100
AcDbTrace
 10
14.700777
 20
1.994869
 30
0.34938
 11
14.685247
 21
1.98852
 31
0.34938
 12
14.72525
 22
1.975351
 32
0.34938
 13
14.712073
 23
1.959596
 33
0.34938
  0
LWPOLYLINE
  5
110
100
AcDbEntity
 67
     1
  8
BORDER
100
AcDbPolyline
 90
        2
 70
     0
 43
0.005136
 38
0.34938
 10
14.72266
 20
2.061556
 42
0.284121
 10
14.685568
 20
2.030528
 42
0.288845
  0
SOLID
  5
114
100
AcDbEntity
 67
     1
  8
BORDER
100
AcDbTrace
 10
14.71419
 20
2.039314
 30
0.34938
 11
14.701248
 21
2.053424
 31
0.34938
 12
14.71961
 22
2.040702
 32
0.34938
 13
14.71794
 23
2.062929
 33
0.34938
  0
SOLID
  5
115
100
AcDbEntity
 67
     1
  8
BORDER
100
AcDbTrace
 10
14.71961
 20
2.040702
 30
0.34938
 11
14.71794
 21
2.062929
 31
0.34938
 12
14.723135
 22
2.039092
 32
0.34938
 13
14.723135
 23
2.064211
 33
0.34938
  0
LWPOLYLINE
  5
116
100
AcDbEntity
 67
     1
  8
BORDER
100
AcDbPolyline
 90
        2
 70
     0
 43
0.005136
 38
0.34938
 10
14.792793
 20
1.968664
 42
0.179001
 10
14.811724
 20
2.00073
 42
0.179001
  0
LWPOLYLINE
  5
11A
100
AcDbEntity
 67
     1
  8
BORDER
100
AcDbPolyline
 90
        2
 70
     0
 43
0.005136
 38
0.34938
 10
14.811724
 20
2.00073
 42
0.152191
 10
14.80725
 20
2.036917
 42
0.152191
  0
SOLID
  5
11E
100
AcDbEntity
 67
     1
  8
BORDER
100
AcDbTrace
 10
14.751605
 20
1.973235
 30
0.34938
 11
14.753017
 21
1.951365
 31
0.34938
 12
14.785754
 22
1.984096
 32
0.34938
 13
14.795374
 23
1.968247
 33
0.34938
  0
SOLID
  5
11F
100
AcDbEntity
 67
     1
  8
BORDER
100
AcDbTrace
 10
14.785754
 20
1.984096
 30
0.34938
 11
14.795374
 21
1.968247
 31
0.34938
 12
14.796934
 22
2.009297
 32
0.34938
 13
14.813573
 23
2.000984
 33
0.34938
  0
SOLID
  5
120
100
AcDbEntity
 67
     1
  8
BORDER
100
AcDbTrace
 10
14.796934
 20
2.009297
 30
0.34938
 11
14.813573
 21
2.000984
 31
0.34938
 12
14.790174
 22
2.031641
 32
0.34938
 13
14.806033
 23
2.042294
 33
0.34938
  0
SOLID
  5
121
100
AcDbEntity
 67
     1
  8
BORDER
100
AcDbTrace
 10
14.790174
 20
2.031641
 30
0.34938
 11
14.806033
 21
2.042294
 31
0.34938
 12
14.774051
 22
2.041139
 32
0.34938
 13
14.776781
 23
2.064718
 33
0.34938
  0
LWPOLYLINE
  5
122
100
AcDbEntity
 67
     1
  8
BORDER
100
AcDbPolyline
 90
        2
 70
     0
 43
0.005136
 38
0.34938
 10
14.80725
 20
2.036917
 42
0.261966
 10
14.770878
 20
2.063621
 42
0.265647
  0
SOLID
  5
126
100
AcDbEntity
 67
     1
  8
BORDER
100
AcDbTrace
 10
14.774051
 20
2.041139
 30
0.34938
 11
14.776781
 21
2.064718
 31
0.34938
 12
14.770523
 22
2.040275
 32
0.34938
 13
14.770523
 23
2.066246
 33
0.34938
  0
LINE
  5
127
100
AcDbEntity
 67
     1
  8
BORDER
100
AcDbLine
 10
9.516875
 20
11.72763
 30
0.11646
 11
16.120819
 21
11.72763
 31
0.11646
  0
LINE
  5
128
100
AcDbEntity
 67
     1
  8
BORDER
100
AcDbLine
 10
16.120819
 20
11.51913
 30
0.11646
 11
16.120819
 21
11.72763
 31
0.11646
  0
VIEWPORT
  5
129
100
AcDbEntity
 67
     1
  8
V-B
100
AcDbViewport
 10
8.136188
 20
5.916481
 30
0.0
 40
15.775439
 41
11.487033
 68
     1
 69
     2
1001
ACAD
1000
MVIEW
1002
{
1070
    16
1010
0.0
1020
0.0
1030
0.0
1010
0.0
1020
0.0
1030
1.0
1040
0.0
1040
7.456712
1040
9.428042
1040
12.606466
1040
50.0
1040
0.0
1040
0.0
1070
     0
1070
   100
1070
     0
1070
     0
1070
     0
1070
     0
1070
     0
1070
     0
1040
0.0
1040
0.0
1040
0.0
1040
0.01
1040
0.01
1040
0.25
1040
0.25
1070
     0
1002
{
1002
}
1002
}
  0
TEXT
  5
12B
100
AcDbEntity
 67
     1
  8
D1
100
AcDbText
 10
15.271007
 20
0.968191
 30
0.0
 40
0.1
  1
WEB
 72
     1
 11
15.421007
 21
0.968191
 31
0.0
100
AcDbText
  0
TEXT
  5
14F
100
AcDbEntity
 67
     1
  8
D1
100
AcDbText
 10
15.939057
 20
11.470767
 30
0.0
 40
0.1
  1

 72
     2
 11
15.939057
 21
11.470767
 31
0.0
100
AcDbText
  0
TEXT
  5
151
100
AcDbEntity
 67
     1
  8
D1
100
AcDbText
 10
13.567577
 20
0.449042
 30
0.0
 40
0.08
  1
A
100
AcDbText
  0
TEXT
  5
66F
100
AcDbEntity
 67
     1
  8
D1
100
AcDbText
 10
13.929698
 20
0.144042
 30
0.0
 40
0.11
  1
DET110
100
AcDbText
  0
TEXT
  5
670
100
AcDbEntity
 67
     1
  8
D1
100
AcDbText
 10
12.926793
 20
1.027723
 30
0.0
 40
0.11
  1
1/16" THK 6061 T6
100
AcDbText
  0
TEXT
  5
675
100
AcDbEntity
 67
     1
  8
D1
100
AcDbText
 10
14.272557
 20
0.449042
 30
0.0
 40
0.08
  1
1
100
AcDbText
  0
TEXT
  5
1A61
100
AcDbEntity
 67
     1
  8
D1
100
AcDbText
 10
14.95434
 20
0.753572
 30
0.0
 40
0.1
  1
MECHANICAL
 72
     1
 11
15.421007
 21
0.753572
 31
0.0
100
AcDbText
  0
TEXT
  5
2195
100
AcDbEntity
 67
     1
  8
D1
100
AcDbText
 10
14.392017
 20
0.737713
 30
-0.17469
 40
0.1
  1
SR
100
AcDbText
  0
TEXT
  5
219F
100
AcDbEntity
 67
     1
  8
D1
100
AcDbText
 10
15.087673
 20
0.528391
 30
0.0
 40
0.1
  1
DRAWING
 72
     1
 11
15.421007
 21
0.528391
 31
0.0
100
AcDbText
  0
INSERT
  5
21A7
100
AcDbEntity
 67
     1
  8
S2
100
AcDbBlockReference
  2
ESDINF_101
 10
8.27426
 20
0.207964
 30
0.0
 41
0.75
 42
0.75
 43
1.059108
  0
INSERT
  5
21B0
100
AcDbEntity
 67
     1
  8
S2
100
AcDbBlockReference
  2
COPYRIGHT
 10
0.229548
 20
11.331926
 30
0.0
 41
0.75
 42
0.75
 43
1.374587
  0
ENDSEC
  0
SECTION
  2
OBJECTS
  0
DICTIONARY
  5
C
100
AcDbDictionary
  3
ACAD_GROUP
350
D
  3
ACAD_MLINESTYLE
350
E
  3
CONTENTDICTIONARY
350
2199
  0
DICTIONARY
  5
D
102
{ACAD_REACTORS
330
C
102
}
100
AcDbDictionary
  0
DICTIONARY
  5
E
102
{ACAD_REACTORS
330
C
102
}
100
AcDbDictionary
  3
STANDARD
350
1B
  0
DICTIONARY
  5
2199
102
{ACAD_REACTORS
330
C
102
}
100
AcDbDictionary
  0
MLINESTYLE
  5
1B
102
{ACAD_REACTORS
330
E
102
}
100
AcDbMlineStyle
  2
STANDARD
 70
     0
  3

 62
     0
 51
90.0
 52
90.0
 71
     2
 49
0.5
 62
   256
  6
BYLAYER
 49
-0.5
 62
   256
  6
BYLAYER
  0
ENDSEC
  0
EOF
