ISO-10303-21;
HEADER;
FILE_DESCRIPTION (( 'STEP AP203' ),
    '1' );
FILE_NAME ('Web Model 84459_47837.step',
    '2017-04-03T16:41:11',
    ( '' ),
    ( '' ),
    'SwSTEP 2.0',
    'SolidWorks 2016',
    '' );
FILE_SCHEMA (( 'CONFIG_CONTROL_DESIGN' ));
ENDSEC;

DATA;
#1 = CALENDAR_DATE ( 2017, 3, 4 ) ;
#2 = AXIS2_PLACEMENT_3D ( 'NONE', #51, #90, #24 ) ;
#3 = ADVANCED_FACE ( 'NONE', ( #64 ), #68, .T. ) ;
#4 = AXIS2_PLACEMENT_3D ( 'NONE', #161, #103, #137 ) ;
#5 = EDGE_CURVE ( 'NONE', #122, #101, #74, .T. ) ;
#6 = ORIENTED_EDGE ( 'NONE', *, *, #10, .F. ) ;
#7 = EDGE_CURVE ( 'NONE', #122, #108, #31, .T. ) ;
#8 = EDGE_LOOP ( 'NONE', ( #151, #149 ) ) ;
#9 = DIRECTION ( 'NONE',  ( 0.0000000000000000000, 0.0000000000000000000, 1.000000000000000000 ) ) ;
#10 = EDGE_CURVE ( 'NONE', #108, #69, #100, .T. ) ;
#11 = CARTESIAN_POINT ( 'NONE',  ( 2.500000000000000000, 0.0000000000000000000, 0.0000000000000000000 ) ) ;
#12 = AXIS2_PLACEMENT_3D ( 'NONE', #63, #81, #52 ) ;
#13 = EDGE_LOOP ( 'NONE', ( #162, #67, #165, #18 ) ) ;
#14 = CARTESIAN_POINT ( 'NONE',  ( -2.500000000000000000, 3.061616997868383100E-016, -1.000000000000000000 ) ) ;
#15 = DIRECTION ( 'NONE',  ( 0.0000000000000000000, 0.0000000000000000000, 1.000000000000000000 ) ) ;
#16 = PRODUCT_DEFINITION_SHAPE ( 'NONE', 'NONE',  #174 ) ;
#17 = CC_DESIGN_APPROVAL ( #153, ( #20 ) ) ;
#18 = ORIENTED_EDGE ( 'NONE', *, *, #5, .F. ) ;
#19 = EDGE_CURVE ( 'NONE', #108, #122, #143, .T. ) ;
#20 = PRODUCT_DEFINITION_FORMATION_WITH_SPECIFIED_SOURCE ( 'ANY', '', #129, .NOT_KNOWN. ) ;
#21 = ORIENTED_EDGE ( 'NONE', *, *, #7, .F. ) ;
#22 = EDGE_CURVE ( 'NONE', #69, #101, #141, .T. ) ;
#23 =( GEOMETRIC_REPRESENTATION_CONTEXT ( 3 ) GLOBAL_UNCERTAINTY_ASSIGNED_CONTEXT ( ( #36 ) ) GLOBAL_UNIT_ASSIGNED_CONTEXT ( ( #150, #56, #34 ) ) REPRESENTATION_CONTEXT ( 'NONE', 'WORKASPACE' ) );
#24 = DIRECTION ( 'NONE',  ( 1.000000000000000000, 0.0000000000000000000, 0.0000000000000000000 ) ) ;
#25 = APPLICATION_CONTEXT ( 'configuration controlled 3d designs of mechanical parts and assemblies' ) ;
#26 = APPROVAL_DATE_TIME ( #158, #93 ) ;
#27 = CC_DESIGN_APPROVAL ( #93, ( #59 ) ) ;
#28 = DATE_TIME_ROLE ( 'creation_date' ) ;
#29 = CALENDAR_DATE ( 2017, 3, 4 ) ;
#30 = SECURITY_CLASSIFICATION_LEVEL ( 'unclassified' ) ;
#31 = CIRCLE ( 'NONE', #115, 2.500000000000000000 ) ;
#32 = AXIS2_PLACEMENT_3D ( 'NONE', #87, #106, #175 ) ;
#33 = EDGE_CURVE ( 'NONE', #101, #69, #110, .T. ) ;
#34 =( NAMED_UNIT ( * ) SI_UNIT ( $, .STERADIAN. ) SOLID_ANGLE_UNIT ( ) );
#35 = APPROVAL_STATUS ( 'not_yet_approved' ) ;
#36 = UNCERTAINTY_MEASURE_WITH_UNIT (LENGTH_MEASURE( 1.000000000000000100E-005 ), #150, 'distance_accuracy_value', 'NONE');
#37 = PRODUCT_RELATED_PRODUCT_CATEGORY ( 'detail', '', ( #129 ) ) ;
#38 = CARTESIAN_POINT ( 'NONE',  ( 0.0000000000000000000, 0.0000000000000000000, -1.000000000000000000 ) ) ;
#39 = CARTESIAN_POINT ( 'NONE',  ( 0.0000000000000000000, 0.0000000000000000000, 0.0000000000000000000 ) ) ;
#40 = DIRECTION ( 'NONE',  ( 0.0000000000000000000, 0.0000000000000000000, 1.000000000000000000 ) ) ;
#41 = APPROVAL_ROLE ( '' ) ;
#42 = CC_DESIGN_DATE_AND_TIME_ASSIGNMENT ( #154, #28, ( #174 ) ) ;
#43 = DESIGN_CONTEXT ( 'detailed design', #84, 'design' ) ;
#44 = CC_DESIGN_SECURITY_CLASSIFICATION ( #59, ( #20 ) ) ;
#45 = LOCAL_TIME ( 12, 41, 11.00000000000000000, #127 ) ;
#46 = ADVANCED_FACE ( 'NONE', ( #53 ), #128, .T. ) ;
#47 = ORIENTED_EDGE ( 'NONE', *, *, #19, .F. ) ;
#48 = ORGANIZATION ( 'UNSPECIFIED', 'UNSPECIFIED', '' ) ;
#49 = CALENDAR_DATE ( 2017, 3, 4 ) ;
#50 = APPROVAL_ROLE ( '' ) ;
#51 = CARTESIAN_POINT ( 'NONE',  ( 0.0000000000000000000, 0.0000000000000000000, 0.0000000000000000000 ) ) ;
#52 = DIRECTION ( 'NONE',  ( 1.000000000000000000, 0.0000000000000000000, 0.0000000000000000000 ) ) ;
#53 = FACE_OUTER_BOUND ( 'NONE', #8, .T. ) ;
#54 = CC_DESIGN_PERSON_AND_ORGANIZATION_ASSIGNMENT ( #118, #61, ( #59 ) ) ;
#55 = PERSON_AND_ORGANIZATION ( #114, #48 ) ;
#56 =( NAMED_UNIT ( * ) PLANE_ANGLE_UNIT ( ) SI_UNIT ( $, .RADIAN. ) );
#57 = ORIENTED_EDGE ( 'NONE', *, *, #19, .T. ) ;
#58 = EDGE_LOOP ( 'NONE', ( #6, #57, #131, #70 ) ) ;
#59 = SECURITY_CLASSIFICATION ( '', '', #30 ) ;
#60 = DATE_AND_TIME ( #29, #148 ) ;
#61 = PERSON_AND_ORGANIZATION_ROLE ( 'classification_officer' ) ;
#62 = PERSON_AND_ORGANIZATION ( #114, #48 ) ;
#63 = CARTESIAN_POINT ( 'NONE',  ( 0.0000000000000000000, 0.0000000000000000000, -1.000000000000000000 ) ) ;
#64 = FACE_OUTER_BOUND ( 'NONE', #13, .T. ) ;
#65 = AXIS2_PLACEMENT_3D ( 'NONE', #156, #40, #104 ) ;
#66 = CARTESIAN_POINT ( 'NONE',  ( 2.500000000000000000, 0.0000000000000000000, -1.000000000000000000 ) ) ;
#67 = ORIENTED_EDGE ( 'NONE', *, *, #10, .T. ) ;
#68 = CYLINDRICAL_SURFACE ( 'NONE', #32, 2.500000000000000000 ) ;
#69 = VERTEX_POINT ( 'NONE', #98 ) ;
#70 = ORIENTED_EDGE ( 'NONE', *, *, #22, .F. ) ;
#71 = CC_DESIGN_PERSON_AND_ORGANIZATION_ASSIGNMENT ( #88, #132, ( #20 ) ) ;
#72 = COORDINATED_UNIVERSAL_TIME_OFFSET ( 5, 0, .BEHIND. ) ;
#73 = PERSON_AND_ORGANIZATION ( #114, #48 ) ;
#74 = LINE ( 'NONE', #97, #121 ) ;
#75 = APPLICATION_PROTOCOL_DEFINITION ( 'international standard', 'config_control_design', 1994, #25 ) ;
#76 = CC_DESIGN_APPROVAL ( #160, ( #174 ) ) ;
#77 = CALENDAR_DATE ( 2017, 3, 4 ) ;
#78 = DIRECTION ( 'NONE',  ( 1.000000000000000000, 0.0000000000000000000, 0.0000000000000000000 ) ) ;
#79 = ADVANCED_BREP_SHAPE_REPRESENTATION ( 'Web Model 84459_47837', ( #171, #113 ), #23 ) ;
#80 = PERSON_AND_ORGANIZATION ( #114, #48 ) ;
#81 = DIRECTION ( 'NONE',  ( 0.0000000000000000000, 0.0000000000000000000, 1.000000000000000000 ) ) ;
#82 = CC_DESIGN_PERSON_AND_ORGANIZATION_ASSIGNMENT ( #73, #94, ( #20 ) ) ;
#83 = APPROVAL_STATUS ( 'not_yet_approved' ) ;
#84 = APPLICATION_CONTEXT ( 'configuration controlled 3d designs of mechanical parts and assemblies' ) ;
#85 = CYLINDRICAL_SURFACE ( 'NONE', #12, 2.500000000000000000 ) ;
#86 = PERSON_AND_ORGANIZATION ( #114, #48 ) ;
#87 = CARTESIAN_POINT ( 'NONE',  ( 0.0000000000000000000, 0.0000000000000000000, -1.000000000000000000 ) ) ;
#88 = PERSON_AND_ORGANIZATION ( #114, #48 ) ;
#89 = PLANE ( 'NONE',  #4 ) ;
#90 = DIRECTION ( 'NONE',  ( 0.0000000000000000000, 0.0000000000000000000, 1.000000000000000000 ) ) ;
#91 = VECTOR ( 'NONE', #125, 1000.000000000000000 ) ;
#92 = APPLICATION_PROTOCOL_DEFINITION ( 'international standard', 'config_control_design', 1994, #84 ) ;
#93 = APPROVAL ( #83, 'UNSPECIFIED' ) ;
#94 = PERSON_AND_ORGANIZATION_ROLE ( 'design_supplier' ) ;
#95 = LOCAL_TIME ( 12, 41, 11.00000000000000000, #72 ) ;
#96 = PERSON_AND_ORGANIZATION ( #114, #48 ) ;
#97 = CARTESIAN_POINT ( 'NONE',  ( 2.500000000000000000, 0.0000000000000000000, -1.000000000000000000 ) ) ;
#98 = CARTESIAN_POINT ( 'NONE',  ( -2.500000000000000000, 3.061616997868383100E-016, 0.0000000000000000000 ) ) ;
#99 = LOCAL_TIME ( 12, 41, 11.00000000000000000, #111 ) ;
#100 = LINE ( 'NONE', #138, #91 ) ;
#101 = VERTEX_POINT ( 'NONE', #11 ) ;
#102 = EDGE_LOOP ( 'NONE', ( #21, #47 ) ) ;
#103 = DIRECTION ( 'NONE',  ( 0.0000000000000000000, 0.0000000000000000000, 1.000000000000000000 ) ) ;
#104 = DIRECTION ( 'NONE',  ( 1.000000000000000000, 0.0000000000000000000, -0.0000000000000000000 ) ) ;
#105 = ADVANCED_FACE ( 'NONE', ( #136 ), #89, .F. ) ;
#106 = DIRECTION ( 'NONE',  ( 0.0000000000000000000, 0.0000000000000000000, 1.000000000000000000 ) ) ;
#107 = CC_DESIGN_DATE_AND_TIME_ASSIGNMENT ( #172, #135, ( #59 ) ) ;
#108 = VERTEX_POINT ( 'NONE', #14 ) ;
#109 = APPROVAL_PERSON_ORGANIZATION ( #86, #153, #146 ) ;
#110 = CIRCLE ( 'NONE', #120, 2.500000000000000000 ) ;
#111 = COORDINATED_UNIVERSAL_TIME_OFFSET ( 5, 0, .BEHIND. ) ;
#112 = CLOSED_SHELL ( 'NONE', ( #3, #155, #105, #46 ) ) ;
#113 = AXIS2_PLACEMENT_3D ( 'NONE', #166, #140, #78 ) ;
#114 = PERSON ( 'UNSPECIFIED', 'UNSPECIFIED', 'UNSPECIFIED', ('UNSPECIFIED'), ('UNSPECIFIED'), ('UNSPECIFIED') ) ;
#115 = AXIS2_PLACEMENT_3D ( 'NONE', #38, #147, #139 ) ;
#116 = COORDINATED_UNIVERSAL_TIME_OFFSET ( 5, 0, .BEHIND. ) ;
#117 = LOCAL_TIME ( 12, 41, 11.00000000000000000, #133 ) ;
#118 = PERSON_AND_ORGANIZATION ( #114, #48 ) ;
#119 = PERSON_AND_ORGANIZATION_ROLE ( 'creator' ) ;
#120 = AXIS2_PLACEMENT_3D ( 'NONE', #39, #15, #163 ) ;
#121 = VECTOR ( 'NONE', #9, 1000.000000000000000 ) ;
#122 = VERTEX_POINT ( 'NONE', #66 ) ;
#123 = CC_DESIGN_PERSON_AND_ORGANIZATION_ASSIGNMENT ( #55, #157, ( #129 ) ) ;
#124 = APPROVAL_DATE_TIME ( #134, #153 ) ;
#125 = DIRECTION ( 'NONE',  ( 0.0000000000000000000, 0.0000000000000000000, 1.000000000000000000 ) ) ;
#126 = APPROVAL_DATE_TIME ( #60, #160 ) ;
#127 = COORDINATED_UNIVERSAL_TIME_OFFSET ( 5, 0, .BEHIND. ) ;
#128 = PLANE ( 'NONE',  #65 ) ;
#129 = PRODUCT ( 'Web Model 84459_47837', 'Web Model 84459_47837', '', ( #170 ) ) ;
#130 = FACE_OUTER_BOUND ( 'NONE', #58, .T. ) ;
#131 = ORIENTED_EDGE ( 'NONE', *, *, #5, .T. ) ;
#132 = PERSON_AND_ORGANIZATION_ROLE ( 'creator' ) ;
#133 = COORDINATED_UNIVERSAL_TIME_OFFSET ( 5, 0, .BEHIND. ) ;
#134 = DATE_AND_TIME ( #49, #117 ) ;
#135 = DATE_TIME_ROLE ( 'classification_date' ) ;
#136 = FACE_OUTER_BOUND ( 'NONE', #102, .T. ) ;
#137 = DIRECTION ( 'NONE',  ( 1.000000000000000000, 0.0000000000000000000, -0.0000000000000000000 ) ) ;
#138 = CARTESIAN_POINT ( 'NONE',  ( -2.500000000000000000, 3.061616997868383100E-016, -1.000000000000000000 ) ) ;
#139 = DIRECTION ( 'NONE',  ( 1.000000000000000000, 0.0000000000000000000, 0.0000000000000000000 ) ) ;
#140 = DIRECTION ( 'NONE',  ( 0.0000000000000000000, 0.0000000000000000000, 1.000000000000000000 ) ) ;
#141 = CIRCLE ( 'NONE', #2, 2.500000000000000000 ) ;
#142 = SHAPE_DEFINITION_REPRESENTATION ( #16, #79 ) ;
#143 = CIRCLE ( 'NONE', #145, 2.500000000000000000 ) ;
#144 = CC_DESIGN_PERSON_AND_ORGANIZATION_ASSIGNMENT ( #96, #119, ( #174 ) ) ;
#145 = AXIS2_PLACEMENT_3D ( 'NONE', #169, #152, #167 ) ;
#146 = APPROVAL_ROLE ( '' ) ;
#147 = DIRECTION ( 'NONE',  ( 0.0000000000000000000, 0.0000000000000000000, 1.000000000000000000 ) ) ;
#148 = LOCAL_TIME ( 12, 41, 11.00000000000000000, #116 ) ;
#149 = ORIENTED_EDGE ( 'NONE', *, *, #22, .T. ) ;
#150 =( LENGTH_UNIT ( ) NAMED_UNIT ( * ) SI_UNIT ( .MILLI., .METRE. ) );
#151 = ORIENTED_EDGE ( 'NONE', *, *, #33, .T. ) ;
#152 = DIRECTION ( 'NONE',  ( 0.0000000000000000000, 0.0000000000000000000, 1.000000000000000000 ) ) ;
#153 = APPROVAL ( #35, 'UNSPECIFIED' ) ;
#154 = DATE_AND_TIME ( #77, #45 ) ;
#155 = ADVANCED_FACE ( 'NONE', ( #130 ), #85, .T. ) ;
#156 = CARTESIAN_POINT ( 'NONE',  ( 0.0000000000000000000, 0.0000000000000000000, 0.0000000000000000000 ) ) ;
#157 = PERSON_AND_ORGANIZATION_ROLE ( 'design_owner' ) ;
#158 = DATE_AND_TIME ( #159, #99 ) ;
#159 = CALENDAR_DATE ( 2017, 3, 4 ) ;
#160 = APPROVAL ( #173, 'UNSPECIFIED' ) ;
#161 = CARTESIAN_POINT ( 'NONE',  ( 0.0000000000000000000, 0.0000000000000000000, -1.000000000000000000 ) ) ;
#162 = ORIENTED_EDGE ( 'NONE', *, *, #7, .T. ) ;
#163 = DIRECTION ( 'NONE',  ( 1.000000000000000000, 0.0000000000000000000, 0.0000000000000000000 ) ) ;
#164 = APPROVAL_PERSON_ORGANIZATION ( #80, #160, #41 ) ;
#165 = ORIENTED_EDGE ( 'NONE', *, *, #33, .F. ) ;
#166 = CARTESIAN_POINT ( 'NONE',  ( 0.0000000000000000000, 0.0000000000000000000, 0.0000000000000000000 ) ) ;
#167 = DIRECTION ( 'NONE',  ( 1.000000000000000000, 0.0000000000000000000, 0.0000000000000000000 ) ) ;
#168 = APPROVAL_PERSON_ORGANIZATION ( #62, #93, #50 ) ;
#169 = CARTESIAN_POINT ( 'NONE',  ( 0.0000000000000000000, 0.0000000000000000000, -1.000000000000000000 ) ) ;
#170 = MECHANICAL_CONTEXT ( 'NONE', #25, 'mechanical' ) ;
#171 = MANIFOLD_SOLID_BREP ( 'Extrude1', #112 ) ;
#172 = DATE_AND_TIME ( #1, #95 ) ;
#173 = APPROVAL_STATUS ( 'not_yet_approved' ) ;
#174 = PRODUCT_DEFINITION ( 'UNKNOWN', '', #20, #43 ) ;
#175 = DIRECTION ( 'NONE',  ( 1.000000000000000000, 0.0000000000000000000, 0.0000000000000000000 ) ) ;
ENDSEC;
END-ISO-10303-21;
