ISO-10303-21;
HEADER;
FILE_DESCRIPTION (( 'STEP AP203' ),
    '1' );
FILE_NAME ('Web Model 15423_15427.step',
    '2020-07-31T18:41:47',
    ( '' ),
    ( '' ),
    'SwSTEP 2.0',
    'SolidWorks 2018',
    '' );
FILE_SCHEMA (( 'CONFIG_CONTROL_DESIGN' ));
ENDSEC;

DATA;
#1 = DIRECTION ( 'NONE',  ( -0.0000000000000000000, -0.0000000000000000000, -1.000000000000000000 ) ) ;
#2 = SHAPE_DEFINITION_REPRESENTATION ( #22, #71 ) ;
#3 = CARTESIAN_POINT ( 'NONE',  ( 0.0000000000000000000, 0.0000000000000000000, -1.500000000000000000 ) ) ;
#4 = DIRECTION ( 'NONE',  ( 0.0000000000000000000, 0.0000000000000000000, 1.000000000000000000 ) ) ;
#5 = VERTEX_POINT ( 'NONE', #79 ) ;
#6 = APPROVAL_STATUS ( 'not_yet_approved' ) ;
#7 =( NAMED_UNIT ( * ) SI_UNIT ( $, .STERADIAN. ) SOLID_ANGLE_UNIT ( ) );
#8 = EDGE_CURVE ( 'NONE', #35, #91, #172, .T. ) ;
#9 = VECTOR ( 'NONE', #29, 1000.000000000000000 ) ;
#10 = CC_DESIGN_PERSON_AND_ORGANIZATION_ASSIGNMENT ( #159, #84, ( #99 ) ) ;
#11 = DIRECTION ( 'NONE',  ( 1.000000000000000000, 0.0000000000000000000, -0.0000000000000000000 ) ) ;
#12 = DATE_AND_TIME ( #127, #157 ) ;
#13 = EDGE_CURVE ( 'NONE', #91, #5, #18, .T. ) ;
#14 = DIRECTION ( 'NONE',  ( 1.000000000000000000, 0.0000000000000000000, 0.0000000000000000000 ) ) ;
#15 =( NAMED_UNIT ( * ) PLANE_ANGLE_UNIT ( ) SI_UNIT ( $, .RADIAN. ) );
#16 = AXIS2_PLACEMENT_3D ( 'NONE', #128, #4, #14 ) ;
#17 = PERSON_AND_ORGANIZATION_ROLE ( 'classification_officer' ) ;
#18 = LINE ( 'NONE', #151, #88 ) ;
#19 = DATE_TIME_ROLE ( 'creation_date' ) ;
#20 = PRODUCT_DEFINITION_FORMATION_WITH_SPECIFIED_SOURCE ( 'ANY', '', #70, .NOT_KNOWN. ) ;
#21 = PERSON_AND_ORGANIZATION ( #100, #36 ) ;
#22 = PRODUCT_DEFINITION_SHAPE ( 'NONE', 'NONE',  #99 ) ;
#23 = ORIENTED_EDGE ( 'NONE', *, *, #13, .F. ) ;
#24 = CALENDAR_DATE ( 2020, 31, 7 ) ;
#25 = EDGE_LOOP ( 'NONE', ( #39, #126 ) ) ;
#26 = ADVANCED_FACE ( 'NONE', ( #173 ), #32, .F. ) ;
#27 = AXIS2_PLACEMENT_3D ( 'NONE', #108, #152, #46 ) ;
#28 = ORIENTED_EDGE ( 'NONE', *, *, #156, .T. ) ;
#29 = DIRECTION ( 'NONE',  ( -0.0000000000000000000, -0.0000000000000000000, -1.000000000000000000 ) ) ;
#30 = CC_DESIGN_APPROVAL ( #171, ( #136 ) ) ;
#31 = EDGE_LOOP ( 'NONE', ( #23, #64, #142, #28 ) ) ;
#32 = PLANE ( 'NONE',  #27 ) ;
#33 = DIRECTION ( 'NONE',  ( 0.0000000000000000000, 0.0000000000000000000, 1.000000000000000000 ) ) ;
#34 = SECURITY_CLASSIFICATION_LEVEL ( 'unclassified' ) ;
#35 = VERTEX_POINT ( 'NONE', #92 ) ;
#36 = ORGANIZATION ( 'UNSPECIFIED', 'UNSPECIFIED', '' ) ;
#37 = EDGE_LOOP ( 'NONE', ( #50, #118, #146, #57 ) ) ;
#38 = AXIS2_PLACEMENT_3D ( 'NONE', #140, #61, #161 ) ;
#39 = ORIENTED_EDGE ( 'NONE', *, *, #156, .F. ) ;
#40 = COORDINATED_UNIVERSAL_TIME_OFFSET ( 5, 0, .BEHIND. ) ;
#41 = CALENDAR_DATE ( 2020, 31, 7 ) ;
#42 = LOCAL_TIME ( 14, 41, 47.00000000000000000, #148 ) ;
#43 = CIRCLE ( 'NONE', #16, 6.349999999999999645 ) ;
#44 = CARTESIAN_POINT ( 'NONE',  ( 0.0000000000000000000, 0.0000000000000000000, 1.500000000000000000 ) ) ;
#45 =( GEOMETRIC_REPRESENTATION_CONTEXT ( 3 ) GLOBAL_UNCERTAINTY_ASSIGNED_CONTEXT ( ( #116 ) ) GLOBAL_UNIT_ASSIGNED_CONTEXT ( ( #48, #15, #7 ) ) REPRESENTATION_CONTEXT ( 'NONE', 'WORKASPACE' ) );
#46 = DIRECTION ( 'NONE',  ( 1.000000000000000000, 0.0000000000000000000, -0.0000000000000000000 ) ) ;
#47 = DESIGN_CONTEXT ( 'detailed design', #143, 'design' ) ;
#48 =( LENGTH_UNIT ( ) NAMED_UNIT ( * ) SI_UNIT ( .MILLI., .METRE. ) );
#49 = AXIS2_PLACEMENT_3D ( 'NONE', #60, #76, #93 ) ;
#50 = ORIENTED_EDGE ( 'NONE', *, *, #154, .F. ) ;
#51 = PERSON_AND_ORGANIZATION ( #100, #36 ) ;
#52 = APPROVAL_ROLE ( '' ) ;
#53 = CYLINDRICAL_SURFACE ( 'NONE', #55, 6.349999999999999645 ) ;
#54 = PERSON_AND_ORGANIZATION ( #100, #36 ) ;
#55 = AXIS2_PLACEMENT_3D ( 'NONE', #44, #74, #160 ) ;
#56 = CC_DESIGN_PERSON_AND_ORGANIZATION_ASSIGNMENT ( #149, #80, ( #70 ) ) ;
#57 = ORIENTED_EDGE ( 'NONE', *, *, #165, .F. ) ;
#58 = APPROVAL_PERSON_ORGANIZATION ( #21, #134, #133 ) ;
#59 = PLANE ( 'NONE',  #117 ) ;
#60 = CARTESIAN_POINT ( 'NONE',  ( 0.0000000000000000000, 0.0000000000000000000, 1.500000000000000000 ) ) ;
#61 = DIRECTION ( 'NONE',  ( -0.0000000000000000000, -0.0000000000000000000, -1.000000000000000000 ) ) ;
#62 = DATE_AND_TIME ( #135, #162 ) ;
#63 = CC_DESIGN_PERSON_AND_ORGANIZATION_ASSIGNMENT ( #137, #17, ( #136 ) ) ;
#64 = ORIENTED_EDGE ( 'NONE', *, *, #8, .F. ) ;
#65 = COORDINATED_UNIVERSAL_TIME_OFFSET ( 5, 0, .BEHIND. ) ;
#66 = DIRECTION ( 'NONE',  ( 1.000000000000000000, 0.0000000000000000000, 0.0000000000000000000 ) ) ;
#67 = CC_DESIGN_PERSON_AND_ORGANIZATION_ASSIGNMENT ( #51, #168, ( #20 ) ) ;
#68 = AXIS2_PLACEMENT_3D ( 'NONE', #164, #122, #132 ) ;
#69 = ORIENTED_EDGE ( 'NONE', *, *, #154, .T. ) ;
#70 = PRODUCT ( 'Web Model 15423_15427', 'Web Model 15423_15427', '', ( #97 ) ) ;
#71 = ADVANCED_BREP_SHAPE_REPRESENTATION ( 'Web Model 15423_15427', ( #106, #68 ), #45 ) ;
#72 = CC_DESIGN_PERSON_AND_ORGANIZATION_ASSIGNMENT ( #155, #95, ( #20 ) ) ;
#73 = CC_DESIGN_DATE_AND_TIME_ASSIGNMENT ( #89, #98, ( #136 ) ) ;
#74 = DIRECTION ( 'NONE',  ( -0.0000000000000000000, -0.0000000000000000000, -1.000000000000000000 ) ) ;
#75 = CLOSED_SHELL ( 'NONE', ( #150, #105, #90, #26 ) ) ;
#76 = DIRECTION ( 'NONE',  ( 0.0000000000000000000, 0.0000000000000000000, 1.000000000000000000 ) ) ;
#77 = CALENDAR_DATE ( 2020, 31, 7 ) ;
#78 = CARTESIAN_POINT ( 'NONE',  ( -6.349999999999999645, 0.0000000000000000000, -1.500000000000000000 ) ) ;
#79 = CARTESIAN_POINT ( 'NONE',  ( 6.349999999999999645, 7.776507174585692163E-16, -1.500000000000000000 ) ) ;
#80 = PERSON_AND_ORGANIZATION_ROLE ( 'design_owner' ) ;
#81 = FACE_OUTER_BOUND ( 'NONE', #31, .T. ) ;
#82 = AXIS2_PLACEMENT_3D ( 'NONE', #139, #153, #94 ) ;
#83 = APPROVAL_STATUS ( 'not_yet_approved' ) ;
#84 = PERSON_AND_ORGANIZATION_ROLE ( 'creator' ) ;
#85 = ORIENTED_EDGE ( 'NONE', *, *, #8, .T. ) ;
#86 = DATE_AND_TIME ( #24, #110 ) ;
#87 = APPROVAL_DATE_TIME ( #120, #171 ) ;
#88 = VECTOR ( 'NONE', #1, 1000.000000000000000 ) ;
#89 = DATE_AND_TIME ( #41, #163 ) ;
#90 = ADVANCED_FACE ( 'NONE', ( #175 ), #59, .T. ) ;
#91 = VERTEX_POINT ( 'NONE', #112 ) ;
#92 = CARTESIAN_POINT ( 'NONE',  ( -6.349999999999999645, 0.0000000000000000000, 1.500000000000000000 ) ) ;
#93 = DIRECTION ( 'NONE',  ( 1.000000000000000000, 0.0000000000000000000, 0.0000000000000000000 ) ) ;
#94 = DIRECTION ( 'NONE',  ( 1.000000000000000000, 0.0000000000000000000, 0.0000000000000000000 ) ) ;
#95 = PERSON_AND_ORGANIZATION_ROLE ( 'creator' ) ;
#96 = APPROVAL_ROLE ( '' ) ;
#97 = MECHANICAL_CONTEXT ( 'NONE', #115, 'mechanical' ) ;
#98 = DATE_TIME_ROLE ( 'classification_date' ) ;
#99 = PRODUCT_DEFINITION ( 'UNKNOWN', '', #20, #47 ) ;
#100 = PERSON ( 'UNSPECIFIED', 'UNSPECIFIED', 'UNSPECIFIED', ('UNSPECIFIED'), ('UNSPECIFIED'), ('UNSPECIFIED') ) ;
#101 = EDGE_CURVE ( 'NONE', #5, #102, #43, .T. ) ;
#102 = VERTEX_POINT ( 'NONE', #78 ) ;
#103 = APPROVAL_DATE_TIME ( #86, #129 ) ;
#104 = CYLINDRICAL_SURFACE ( 'NONE', #38, 6.349999999999999645 ) ;
#105 = ADVANCED_FACE ( 'NONE', ( #81 ), #104, .T. ) ;
#106 = MANIFOLD_SOLID_BREP ( 'Boss-Extrude1', #75 ) ;
#107 = DIRECTION ( 'NONE',  ( 0.0000000000000000000, 0.0000000000000000000, 1.000000000000000000 ) ) ;
#108 = CARTESIAN_POINT ( 'NONE',  ( 0.0000000000000000000, 0.0000000000000000000, -1.500000000000000000 ) ) ;
#109 = COORDINATED_UNIVERSAL_TIME_OFFSET ( 5, 0, .BEHIND. ) ;
#110 = LOCAL_TIME ( 14, 41, 47.00000000000000000, #65 ) ;
#111 = APPROVAL_PERSON_ORGANIZATION ( #170, #171, #52 ) ;
#112 = CARTESIAN_POINT ( 'NONE',  ( 6.349999999999999645, 7.776507174585692163E-16, 1.500000000000000000 ) ) ;
#113 = CIRCLE ( 'NONE', #49, 6.349999999999999645 ) ;
#114 = CC_DESIGN_APPROVAL ( #129, ( #99 ) ) ;
#115 = APPLICATION_CONTEXT ( 'configuration controlled 3d designs of mechanical parts and assemblies' ) ;
#116 = UNCERTAINTY_MEASURE_WITH_UNIT (LENGTH_MEASURE( 1.000000000000000082E-05 ), #48, 'distance_accuracy_value', 'NONE');
#117 = AXIS2_PLACEMENT_3D ( 'NONE', #119, #107, #11 ) ;
#118 = ORIENTED_EDGE ( 'NONE', *, *, #13, .T. ) ;
#119 = CARTESIAN_POINT ( 'NONE',  ( 0.0000000000000000000, 0.0000000000000000000, 1.500000000000000000 ) ) ;
#120 = DATE_AND_TIME ( #77, #42 ) ;
#121 = CARTESIAN_POINT ( 'NONE',  ( -6.349999999999999645, 0.0000000000000000000, 1.500000000000000000 ) ) ;
#122 = DIRECTION ( 'NONE',  ( 0.0000000000000000000, 0.0000000000000000000, 1.000000000000000000 ) ) ;
#123 = LINE ( 'NONE', #121, #9 ) ;
#124 = CC_DESIGN_DATE_AND_TIME_ASSIGNMENT ( #62, #19, ( #99 ) ) ;
#125 = AXIS2_PLACEMENT_3D ( 'NONE', #3, #33, #66 ) ;
#126 = ORIENTED_EDGE ( 'NONE', *, *, #101, .F. ) ;
#127 = CALENDAR_DATE ( 2020, 31, 7 ) ;
#128 = CARTESIAN_POINT ( 'NONE',  ( 0.0000000000000000000, 0.0000000000000000000, -1.500000000000000000 ) ) ;
#129 = APPROVAL ( #83, 'UNSPECIFIED' ) ;
#130 = APPROVAL_STATUS ( 'not_yet_approved' ) ;
#131 = COORDINATED_UNIVERSAL_TIME_OFFSET ( 5, 0, .BEHIND. ) ;
#132 = DIRECTION ( 'NONE',  ( 1.000000000000000000, 0.0000000000000000000, 0.0000000000000000000 ) ) ;
#133 = APPROVAL_ROLE ( '' ) ;
#134 = APPROVAL ( #130, 'UNSPECIFIED' ) ;
#135 = CALENDAR_DATE ( 2020, 31, 7 ) ;
#136 = SECURITY_CLASSIFICATION ( '', '', #34 ) ;
#137 = PERSON_AND_ORGANIZATION ( #100, #36 ) ;
#138 = CC_DESIGN_APPROVAL ( #134, ( #20 ) ) ;
#139 = CARTESIAN_POINT ( 'NONE',  ( 0.0000000000000000000, 0.0000000000000000000, 1.500000000000000000 ) ) ;
#140 = CARTESIAN_POINT ( 'NONE',  ( 0.0000000000000000000, 0.0000000000000000000, 1.500000000000000000 ) ) ;
#141 = CC_DESIGN_SECURITY_CLASSIFICATION ( #136, ( #20 ) ) ;
#142 = ORIENTED_EDGE ( 'NONE', *, *, #165, .T. ) ;
#143 = APPLICATION_CONTEXT ( 'configuration controlled 3d designs of mechanical parts and assemblies' ) ;
#144 = PRODUCT_RELATED_PRODUCT_CATEGORY ( 'detail', '', ( #70 ) ) ;
#145 = EDGE_LOOP ( 'NONE', ( #85, #69 ) ) ;
#146 = ORIENTED_EDGE ( 'NONE', *, *, #101, .T. ) ;
#147 = APPROVAL_PERSON_ORGANIZATION ( #54, #129, #96 ) ;
#148 = COORDINATED_UNIVERSAL_TIME_OFFSET ( 5, 0, .BEHIND. ) ;
#149 = PERSON_AND_ORGANIZATION ( #100, #36 ) ;
#150 = ADVANCED_FACE ( 'NONE', ( #174 ), #53, .T. ) ;
#151 = CARTESIAN_POINT ( 'NONE',  ( 6.349999999999999645, 7.776507174585692163E-16, 1.500000000000000000 ) ) ;
#152 = DIRECTION ( 'NONE',  ( 0.0000000000000000000, 0.0000000000000000000, 1.000000000000000000 ) ) ;
#153 = DIRECTION ( 'NONE',  ( 0.0000000000000000000, 0.0000000000000000000, 1.000000000000000000 ) ) ;
#154 = EDGE_CURVE ( 'NONE', #91, #35, #113, .T. ) ;
#155 = PERSON_AND_ORGANIZATION ( #100, #36 ) ;
#156 = EDGE_CURVE ( 'NONE', #102, #5, #158, .T. ) ;
#157 = LOCAL_TIME ( 14, 41, 47.00000000000000000, #40 ) ;
#158 = CIRCLE ( 'NONE', #125, 6.349999999999999645 ) ;
#159 = PERSON_AND_ORGANIZATION ( #100, #36 ) ;
#160 = DIRECTION ( 'NONE',  ( -1.000000000000000000, 0.0000000000000000000, 0.0000000000000000000 ) ) ;
#161 = DIRECTION ( 'NONE',  ( -1.000000000000000000, 0.0000000000000000000, 0.0000000000000000000 ) ) ;
#162 = LOCAL_TIME ( 14, 41, 47.00000000000000000, #131 ) ;
#163 = LOCAL_TIME ( 14, 41, 47.00000000000000000, #109 ) ;
#164 = CARTESIAN_POINT ( 'NONE',  ( 0.0000000000000000000, 0.0000000000000000000, 0.0000000000000000000 ) ) ;
#165 = EDGE_CURVE ( 'NONE', #35, #102, #123, .T. ) ;
#166 = APPLICATION_PROTOCOL_DEFINITION ( 'international standard', 'config_control_design', 1994, #143 ) ;
#167 = APPLICATION_PROTOCOL_DEFINITION ( 'international standard', 'config_control_design', 1994, #115 ) ;
#168 = PERSON_AND_ORGANIZATION_ROLE ( 'design_supplier' ) ;
#169 = APPROVAL_DATE_TIME ( #12, #134 ) ;
#170 = PERSON_AND_ORGANIZATION ( #100, #36 ) ;
#171 = APPROVAL ( #6, 'UNSPECIFIED' ) ;
#172 = CIRCLE ( 'NONE', #82, 6.349999999999999645 ) ;
#173 = FACE_OUTER_BOUND ( 'NONE', #25, .T. ) ;
#174 = FACE_OUTER_BOUND ( 'NONE', #37, .T. ) ;
#175 = FACE_OUTER_BOUND ( 'NONE', #145, .T. ) ;
ENDSEC;
END-ISO-10303-21;
