ISO-10303-21;
HEADER;
FILE_DESCRIPTION (( 'STEP AP203' ),
    '1' );
FILE_NAME ('Web Model Lightsmyth Gratings_16866.step',
    '2021-03-11T20:25:10',
    ( '' ),
    ( '' ),
    'SwSTEP 2.0',
    'SolidWorks 2018',
    '' );
FILE_SCHEMA (( 'CONFIG_CONTROL_DESIGN' ));
ENDSEC;

DATA;
#1 =( LENGTH_UNIT ( ) NAMED_UNIT ( * ) SI_UNIT ( .MILLI., .METRE. ) );
#2 = LINE ( 'NONE', #56, #72 ) ;
#3 = CARTESIAN_POINT ( 'NONE',  ( -15.90000000000000391, 10.10000000000000142, 0.9499999999999999556 ) ) ;
#4 = PERSON_AND_ORGANIZATION_ROLE ( 'classification_officer' ) ;
#5 = CARTESIAN_POINT ( 'NONE',  ( 15.89999999999999680, -10.09999999999999787, 0.9499999999999999556 ) ) ;
#6 = PERSON_AND_ORGANIZATION ( #142, #198 ) ;
#7 = APPROVAL_ROLE ( '' ) ;
#8 = DIRECTION ( 'NONE',  ( 0.0000000000000000000, 0.0000000000000000000, 1.000000000000000000 ) ) ;
#9 = PERSON_AND_ORGANIZATION ( #142, #198 ) ;
#10 = VECTOR ( 'NONE', #45, 1000.000000000000000 ) ;
#11 = ADVANCED_FACE ( 'NONE', ( #207 ), #20, .F. ) ;
#12 = VERTEX_POINT ( 'NONE', #191 ) ;
#13 = AXIS2_PLACEMENT_3D ( 'NONE', #26, #135, #63 ) ;
#14 = CALENDAR_DATE ( 2021, 11, 3 ) ;
#15 = EDGE_CURVE ( 'NONE', #113, #155, #2, .T. ) ;
#16 = PRODUCT_DEFINITION_SHAPE ( 'NONE', 'NONE',  #146 ) ;
#17 = COORDINATED_UNIVERSAL_TIME_OFFSET ( 5, 0, .BEHIND. ) ;
#18 = FACE_OUTER_BOUND ( 'NONE', #226, .T. ) ;
#19 = AXIS2_PLACEMENT_3D ( 'NONE', #88, #71, #78 ) ;
#20 = PLANE ( 'NONE',  #122 ) ;
#21 = UNCERTAINTY_MEASURE_WITH_UNIT (LENGTH_MEASURE( 1.000000000000000082E-05 ), #1, 'distance_accuracy_value', 'NONE');
#22 = LINE ( 'NONE', #86, #188 ) ;
#23 = ORIENTED_EDGE ( 'NONE', *, *, #161, .F. ) ;
#24 = CC_DESIGN_APPROVAL ( #154, ( #189 ) ) ;
#25 = ORIENTED_EDGE ( 'NONE', *, *, #73, .T. ) ;
#26 = CARTESIAN_POINT ( 'NONE',  ( -15.90000000000000391, -10.09999999999999787, 0.9499999999999999556 ) ) ;
#27 = EDGE_CURVE ( 'NONE', #155, #217, #44, .T. ) ;
#28 = COORDINATED_UNIVERSAL_TIME_OFFSET ( 5, 0, .BEHIND. ) ;
#29 = FACE_OUTER_BOUND ( 'NONE', #107, .T. ) ;
#30 = ORIENTED_EDGE ( 'NONE', *, *, #48, .F. ) ;
#31 = ORIENTED_EDGE ( 'NONE', *, *, #15, .T. ) ;
#32 = SECURITY_CLASSIFICATION ( '', '', #205 ) ;
#33 = DIRECTION ( 'NONE',  ( 0.0000000000000000000, 1.000000000000000000, 0.0000000000000000000 ) ) ;
#34 = APPROVAL_PERSON_ORGANIZATION ( #214, #179, #111 ) ;
#35 = ORIENTED_EDGE ( 'NONE', *, *, #103, .T. ) ;
#36 = DIRECTION ( 'NONE',  ( -0.0000000000000000000, -1.000000000000000000, -0.0000000000000000000 ) ) ;
#37 = CC_DESIGN_PERSON_AND_ORGANIZATION_ASSIGNMENT ( #156, #80, ( #189 ) ) ;
#38 = DIRECTION ( 'NONE',  ( -0.0000000000000000000, -0.0000000000000000000, -1.000000000000000000 ) ) ;
#39 = LINE ( 'NONE', #197, #232 ) ;
#40 = CARTESIAN_POINT ( 'NONE',  ( -15.90000000000000391, -10.09999999999999787, 0.9499999999999999556 ) ) ;
#41 =( GEOMETRIC_REPRESENTATION_CONTEXT ( 3 ) GLOBAL_UNCERTAINTY_ASSIGNED_CONTEXT ( ( #21 ) ) GLOBAL_UNIT_ASSIGNED_CONTEXT ( ( #1, #70, #209 ) ) REPRESENTATION_CONTEXT ( 'NONE', 'WORKASPACE' ) );
#42 = ORIENTED_EDGE ( 'NONE', *, *, #129, .F. ) ;
#43 = CARTESIAN_POINT ( 'NONE',  ( 15.89999999999999680, 10.10000000000000142, 0.9499999999999999556 ) ) ;
#44 = LINE ( 'NONE', #40, #127 ) ;
#45 = DIRECTION ( 'NONE',  ( -0.0000000000000000000, -0.0000000000000000000, -1.000000000000000000 ) ) ;
#46 = MECHANICAL_CONTEXT ( 'NONE', #132, 'mechanical' ) ;
#47 = VECTOR ( 'NONE', #104, 1000.000000000000000 ) ;
#48 = EDGE_CURVE ( 'NONE', #124, #211, #218, .T. ) ;
#49 = FACE_OUTER_BOUND ( 'NONE', #68, .T. ) ;
#50 = ORIENTED_EDGE ( 'NONE', *, *, #165, .T. ) ;
#51 = CARTESIAN_POINT ( 'NONE',  ( -15.90000000000000391, 10.10000000000000142, 0.0000000000000000000 ) ) ;
#52 = AXIS2_PLACEMENT_3D ( 'NONE', #183, #219, #108 ) ;
#53 = DIRECTION ( 'NONE',  ( -1.000000000000000000, -0.0000000000000000000, -0.0000000000000000000 ) ) ;
#54 = AXIS2_PLACEMENT_3D ( 'NONE', #92, #213, #140 ) ;
#55 = PRODUCT_RELATED_PRODUCT_CATEGORY ( 'detail', '', ( #123 ) ) ;
#56 = CARTESIAN_POINT ( 'NONE',  ( -15.90000000000000391, -10.09999999999999787, 0.9499999999999999556 ) ) ;
#57 = PERSON_AND_ORGANIZATION ( #142, #198 ) ;
#58 = LINE ( 'NONE', #206, #62 ) ;
#59 = CALENDAR_DATE ( 2021, 11, 3 ) ;
#60 = CC_DESIGN_SECURITY_CLASSIFICATION ( #32, ( #189 ) ) ;
#61 = PERSON_AND_ORGANIZATION_ROLE ( 'design_owner' ) ;
#62 = VECTOR ( 'NONE', #69, 1000.000000000000000 ) ;
#63 = DIRECTION ( 'NONE',  ( 0.0000000000000000000, 0.0000000000000000000, -1.000000000000000000 ) ) ;
#64 = PLANE ( 'NONE',  #65 ) ;
#65 = AXIS2_PLACEMENT_3D ( 'NONE', #216, #100, #233 ) ;
#66 = APPROVAL_PERSON_ORGANIZATION ( #6, #154, #230 ) ;
#67 = FACE_OUTER_BOUND ( 'NONE', #192, .T. ) ;
#68 = EDGE_LOOP ( 'NONE', ( #163, #157, #144, #91 ) ) ;
#69 = DIRECTION ( 'NONE',  ( -0.0000000000000000000, -0.0000000000000000000, -1.000000000000000000 ) ) ;
#70 =( NAMED_UNIT ( * ) PLANE_ANGLE_UNIT ( ) SI_UNIT ( $, .RADIAN. ) );
#71 = DIRECTION ( 'NONE',  ( 0.0000000000000000000, 0.0000000000000000000, -1.000000000000000000 ) ) ;
#72 = VECTOR ( 'NONE', #36, 1000.000000000000000 ) ;
#73 = EDGE_CURVE ( 'NONE', #155, #124, #102, .T. ) ;
#74 = DIRECTION ( 'NONE',  ( 1.000000000000000000, 0.0000000000000000000, 0.0000000000000000000 ) ) ;
#75 = ORIENTED_EDGE ( 'NONE', *, *, #129, .T. ) ;
#76 = VERTEX_POINT ( 'NONE', #210 ) ;
#77 = DATE_AND_TIME ( #14, #159 ) ;
#78 = DIRECTION ( 'NONE',  ( -1.000000000000000000, 0.0000000000000000000, -0.0000000000000000000 ) ) ;
#79 = LINE ( 'NONE', #119, #47 ) ;
#80 = PERSON_AND_ORGANIZATION_ROLE ( 'design_supplier' ) ;
#81 = CC_DESIGN_DATE_AND_TIME_ASSIGNMENT ( #162, #166, ( #32 ) ) ;
#82 = APPROVAL_DATE_TIME ( #109, #179 ) ;
#83 = LINE ( 'NONE', #222, #199 ) ;
#84 = VECTOR ( 'NONE', #74, 1000.000000000000000 ) ;
#85 = ORIENTED_EDGE ( 'NONE', *, *, #180, .T. ) ;
#86 = CARTESIAN_POINT ( 'NONE',  ( -15.90000000000000391, 10.10000000000000142, 0.9499999999999999556 ) ) ;
#87 = ORIENTED_EDGE ( 'NONE', *, *, #27, .T. ) ;
#88 = CARTESIAN_POINT ( 'NONE',  ( 0.0000000000000000000, 0.0000000000000000000, 0.9499999999999999556 ) ) ;
#89 = CARTESIAN_POINT ( 'NONE',  ( -15.90000000000000391, 10.10000000000000142, 0.9499999999999999556 ) ) ;
#90 = LOCAL_TIME ( 15, 25, 10.00000000000000000, #115 ) ;
#91 = ORIENTED_EDGE ( 'NONE', *, *, #95, .F. ) ;
#92 = CARTESIAN_POINT ( 'NONE',  ( -15.90000000000000391, -10.09999999999999787, 0.9499999999999999556 ) ) ;
#93 = DIRECTION ( 'NONE',  ( -1.000000000000000000, -0.0000000000000000000, -0.0000000000000000000 ) ) ;
#94 = CARTESIAN_POINT ( 'NONE',  ( -15.90000000000000391, -10.09999999999999787, 0.0000000000000000000 ) ) ;
#95 = EDGE_CURVE ( 'NONE', #12, #138, #39, .T. ) ;
#96 = CALENDAR_DATE ( 2021, 11, 3 ) ;
#97 = ORIENTED_EDGE ( 'NONE', *, *, #48, .T. ) ;
#98 = ADVANCED_FACE ( 'NONE', ( #67 ), #173, .F. ) ;
#99 = APPROVAL_STATUS ( 'not_yet_approved' ) ;
#100 = DIRECTION ( 'NONE',  ( 0.0000000000000000000, 0.0000000000000000000, -1.000000000000000000 ) ) ;
#101 = DESIGN_CONTEXT ( 'detailed design', #117, 'design' ) ;
#102 = LINE ( 'NONE', #190, #84 ) ;
#103 = EDGE_CURVE ( 'NONE', #124, #76, #160, .T. ) ;
#104 = DIRECTION ( 'NONE',  ( -0.0000000000000000000, -0.0000000000000000000, -1.000000000000000000 ) ) ;
#105 = APPROVAL_DATE_TIME ( #77, #141 ) ;
#106 = PLANE ( 'NONE',  #52 ) ;
#107 = EDGE_LOOP ( 'NONE', ( #168, #134, #30, #35 ) ) ;
#108 = DIRECTION ( 'NONE',  ( 0.0000000000000000000, 0.0000000000000000000, 1.000000000000000000 ) ) ;
#109 = DATE_AND_TIME ( #203, #143 ) ;
#110 = LINE ( 'NONE', #194, #148 ) ;
#111 = APPROVAL_ROLE ( '' ) ;
#112 = DATE_AND_TIME ( #59, #90 ) ;
#113 = VERTEX_POINT ( 'NONE', #89 ) ;
#114 = DIRECTION ( 'NONE',  ( 0.0000000000000000000, -1.000000000000000000, 0.0000000000000000000 ) ) ;
#115 = COORDINATED_UNIVERSAL_TIME_OFFSET ( 5, 0, .BEHIND. ) ;
#116 = ORIENTED_EDGE ( 'NONE', *, *, #15, .F. ) ;
#117 = APPLICATION_CONTEXT ( 'configuration controlled 3d designs of mechanical parts and assemblies' ) ;
#118 = PERSON_AND_ORGANIZATION_ROLE ( 'creator' ) ;
#119 = CARTESIAN_POINT ( 'NONE',  ( -15.90000000000000391, 10.10000000000000142, 0.9499999999999999556 ) ) ;
#120 = ADVANCED_FACE ( 'NONE', ( #49 ), #64, .T. ) ;
#121 = EDGE_LOOP ( 'NONE', ( #50, #221, #174, #87 ) ) ;
#122 = AXIS2_PLACEMENT_3D ( 'NONE', #3, #114, #150 ) ;
#123 = PRODUCT ( 'Web Model Lightsmyth Gratings_16866', 'Web Model Lightsmyth Gratings_16866', '', ( #46 ) ) ;
#124 = VERTEX_POINT ( 'NONE', #178 ) ;
#125 = ORIENTED_EDGE ( 'NONE', *, *, #161, .T. ) ;
#126 = DATE_AND_TIME ( #186, #224 ) ;
#127 = VECTOR ( 'NONE', #38, 1000.000000000000000 ) ;
#128 = MANIFOLD_SOLID_BREP ( 'Boss-Extrude1', #200 ) ;
#129 = EDGE_CURVE ( 'NONE', #113, #138, #79, .T. ) ;
#130 = DIRECTION ( 'NONE',  ( 0.0000000000000000000, 1.000000000000000000, 0.0000000000000000000 ) ) ;
#131 = CC_DESIGN_APPROVAL ( #179, ( #32 ) ) ;
#132 = APPLICATION_CONTEXT ( 'configuration controlled 3d designs of mechanical parts and assemblies' ) ;
#133 = PERSON_AND_ORGANIZATION_ROLE ( 'creator' ) ;
#134 = ORIENTED_EDGE ( 'NONE', *, *, #139, .F. ) ;
#135 = DIRECTION ( 'NONE',  ( 1.000000000000000000, 0.0000000000000000000, 0.0000000000000000000 ) ) ;
#136 = ADVANCED_FACE ( 'NONE', ( #29 ), #106, .F. ) ;
#137 = PERSON_AND_ORGANIZATION ( #142, #198 ) ;
#138 = VERTEX_POINT ( 'NONE', #51 ) ;
#139 = EDGE_CURVE ( 'NONE', #211, #12, #58, .T. ) ;
#140 = DIRECTION ( 'NONE',  ( 0.0000000000000000000, -0.0000000000000000000, 1.000000000000000000 ) ) ;
#141 = APPROVAL ( #99, 'UNSPECIFIED' ) ;
#142 = PERSON ( 'UNSPECIFIED', 'UNSPECIFIED', 'UNSPECIFIED', ('UNSPECIFIED'), ('UNSPECIFIED'), ('UNSPECIFIED') ) ;
#143 = LOCAL_TIME ( 15, 25, 10.00000000000000000, #208 ) ;
#144 = ORIENTED_EDGE ( 'NONE', *, *, #180, .F. ) ;
#145 = VECTOR ( 'NONE', #130, 1000.000000000000000 ) ;
#146 = PRODUCT_DEFINITION ( 'UNKNOWN', '', #189, #101 ) ;
#147 = PERSON_AND_ORGANIZATION ( #142, #198 ) ;
#148 = VECTOR ( 'NONE', #152, 1000.000000000000000 ) ;
#149 = ORIENTED_EDGE ( 'NONE', *, *, #27, .F. ) ;
#150 = DIRECTION ( 'NONE',  ( 0.0000000000000000000, -0.0000000000000000000, -1.000000000000000000 ) ) ;
#151 = CC_DESIGN_PERSON_AND_ORGANIZATION_ASSIGNMENT ( #195, #118, ( #189 ) ) ;
#152 = DIRECTION ( 'NONE',  ( -0.0000000000000000000, -1.000000000000000000, -0.0000000000000000000 ) ) ;
#153 = APPROVAL_STATUS ( 'not_yet_approved' ) ;
#154 = APPROVAL ( #153, 'UNSPECIFIED' ) ;
#155 = VERTEX_POINT ( 'NONE', #223 ) ;
#156 = PERSON_AND_ORGANIZATION ( #142, #198 ) ;
#157 = ORIENTED_EDGE ( 'NONE', *, *, #165, .F. ) ;
#158 = AXIS2_PLACEMENT_3D ( 'NONE', #212, #8, #201 ) ;
#159 = LOCAL_TIME ( 15, 25, 10.00000000000000000, #235 ) ;
#160 = LINE ( 'NONE', #202, #10 ) ;
#161 = EDGE_CURVE ( 'NONE', #211, #113, #22, .T. ) ;
#162 = DATE_AND_TIME ( #96, #167 ) ;
#163 = ORIENTED_EDGE ( 'NONE', *, *, #169, .F. ) ;
#164 = CC_DESIGN_DATE_AND_TIME_ASSIGNMENT ( #112, #175, ( #146 ) ) ;
#165 = EDGE_CURVE ( 'NONE', #217, #76, #83, .T. ) ;
#166 = DATE_TIME_ROLE ( 'classification_date' ) ;
#167 = LOCAL_TIME ( 15, 25, 10.00000000000000000, #17 ) ;
#168 = ORIENTED_EDGE ( 'NONE', *, *, #169, .T. ) ;
#169 = EDGE_CURVE ( 'NONE', #76, #12, #184, .T. ) ;
#170 = ORIENTED_EDGE ( 'NONE', *, *, #139, .T. ) ;
#171 = CC_DESIGN_PERSON_AND_ORGANIZATION_ASSIGNMENT ( #9, #61, ( #123 ) ) ;
#172 = APPROVAL_DATE_TIME ( #126, #154 ) ;
#173 = PLANE ( 'NONE',  #13 ) ;
#174 = ORIENTED_EDGE ( 'NONE', *, *, #73, .F. ) ;
#175 = DATE_TIME_ROLE ( 'creation_date' ) ;
#176 = ADVANCED_FACE ( 'NONE', ( #18 ), #187, .F. ) ;
#177 = EDGE_LOOP ( 'NONE', ( #236, #42, #23, #170 ) ) ;
#178 = CARTESIAN_POINT ( 'NONE',  ( 15.89999999999999680, -10.09999999999999787, 0.9499999999999999556 ) ) ;
#179 = APPROVAL ( #225, 'UNSPECIFIED' ) ;
#180 = EDGE_CURVE ( 'NONE', #138, #217, #110, .T. ) ;
#181 = APPROVAL_PERSON_ORGANIZATION ( #57, #141, #7 ) ;
#182 = VECTOR ( 'NONE', #33, 1000.000000000000000 ) ;
#183 = CARTESIAN_POINT ( 'NONE',  ( 15.89999999999999680, -10.09999999999999787, 0.9499999999999999556 ) ) ;
#184 = LINE ( 'NONE', #237, #182 ) ;
#185 = DIRECTION ( 'NONE',  ( 1.000000000000000000, 0.0000000000000000000, 0.0000000000000000000 ) ) ;
#186 = CALENDAR_DATE ( 2021, 11, 3 ) ;
#187 = PLANE ( 'NONE',  #19 ) ;
#188 = VECTOR ( 'NONE', #53, 1000.000000000000000 ) ;
#189 = PRODUCT_DEFINITION_FORMATION_WITH_SPECIFIED_SOURCE ( 'ANY', '', #123, .NOT_KNOWN. ) ;
#190 = CARTESIAN_POINT ( 'NONE',  ( -15.90000000000000391, -10.09999999999999787, 0.9499999999999999556 ) ) ;
#191 = CARTESIAN_POINT ( 'NONE',  ( 15.89999999999999680, 10.10000000000000142, 0.0000000000000000000 ) ) ;
#192 = EDGE_LOOP ( 'NONE', ( #85, #149, #116, #75 ) ) ;
#193 = PLANE ( 'NONE',  #54 ) ;
#194 = CARTESIAN_POINT ( 'NONE',  ( -15.90000000000000391, -10.09999999999999787, 0.0000000000000000000 ) ) ;
#195 = PERSON_AND_ORGANIZATION ( #142, #198 ) ;
#196 = ADVANCED_BREP_SHAPE_REPRESENTATION ( 'Web Model Lightsmyth Gratings_16866', ( #128, #158 ), #41 ) ;
#197 = CARTESIAN_POINT ( 'NONE',  ( -15.90000000000000391, 10.10000000000000142, 0.0000000000000000000 ) ) ;
#198 = ORGANIZATION ( 'UNSPECIFIED', 'UNSPECIFIED', '' ) ;
#199 = VECTOR ( 'NONE', #185, 1000.000000000000000 ) ;
#200 = CLOSED_SHELL ( 'NONE', ( #136, #11, #98, #231, #176, #120 ) ) ;
#201 = DIRECTION ( 'NONE',  ( 1.000000000000000000, 0.0000000000000000000, 0.0000000000000000000 ) ) ;
#202 = CARTESIAN_POINT ( 'NONE',  ( 15.89999999999999680, -10.09999999999999787, 0.9499999999999999556 ) ) ;
#203 = CALENDAR_DATE ( 2021, 11, 3 ) ;
#204 = CC_DESIGN_PERSON_AND_ORGANIZATION_ASSIGNMENT ( #137, #4, ( #32 ) ) ;
#205 = SECURITY_CLASSIFICATION_LEVEL ( 'unclassified' ) ;
#206 = CARTESIAN_POINT ( 'NONE',  ( 15.89999999999999680, 10.10000000000000142, 0.9499999999999999556 ) ) ;
#207 = FACE_OUTER_BOUND ( 'NONE', #177, .T. ) ;
#208 = COORDINATED_UNIVERSAL_TIME_OFFSET ( 5, 0, .BEHIND. ) ;
#209 =( NAMED_UNIT ( * ) SI_UNIT ( $, .STERADIAN. ) SOLID_ANGLE_UNIT ( ) );
#210 = CARTESIAN_POINT ( 'NONE',  ( 15.89999999999999680, -10.09999999999999787, 0.0000000000000000000 ) ) ;
#211 = VERTEX_POINT ( 'NONE', #43 ) ;
#212 = CARTESIAN_POINT ( 'NONE',  ( 0.0000000000000000000, 0.0000000000000000000, 0.0000000000000000000 ) ) ;
#213 = DIRECTION ( 'NONE',  ( 0.0000000000000000000, 1.000000000000000000, 0.0000000000000000000 ) ) ;
#214 = PERSON_AND_ORGANIZATION ( #142, #198 ) ;
#215 = FACE_OUTER_BOUND ( 'NONE', #121, .T. ) ;
#216 = CARTESIAN_POINT ( 'NONE',  ( 0.0000000000000000000, 0.0000000000000000000, 0.0000000000000000000 ) ) ;
#217 = VERTEX_POINT ( 'NONE', #94 ) ;
#218 = LINE ( 'NONE', #5, #145 ) ;
#219 = DIRECTION ( 'NONE',  ( -1.000000000000000000, 0.0000000000000000000, 0.0000000000000000000 ) ) ;
#220 = CC_DESIGN_APPROVAL ( #141, ( #146 ) ) ;
#221 = ORIENTED_EDGE ( 'NONE', *, *, #103, .F. ) ;
#222 = CARTESIAN_POINT ( 'NONE',  ( -15.90000000000000391, -10.09999999999999787, 0.0000000000000000000 ) ) ;
#223 = CARTESIAN_POINT ( 'NONE',  ( -15.90000000000000391, -10.09999999999999787, 0.9499999999999999556 ) ) ;
#224 = LOCAL_TIME ( 15, 25, 10.00000000000000000, #28 ) ;
#225 = APPROVAL_STATUS ( 'not_yet_approved' ) ;
#226 = EDGE_LOOP ( 'NONE', ( #97, #125, #31, #25 ) ) ;
#227 = CC_DESIGN_PERSON_AND_ORGANIZATION_ASSIGNMENT ( #147, #133, ( #146 ) ) ;
#228 = SHAPE_DEFINITION_REPRESENTATION ( #16, #196 ) ;
#229 = APPLICATION_PROTOCOL_DEFINITION ( 'international standard', 'config_control_design', 1994, #117 ) ;
#230 = APPROVAL_ROLE ( '' ) ;
#231 = ADVANCED_FACE ( 'NONE', ( #215 ), #193, .F. ) ;
#232 = VECTOR ( 'NONE', #93, 1000.000000000000000 ) ;
#233 = DIRECTION ( 'NONE',  ( -1.000000000000000000, 0.0000000000000000000, -0.0000000000000000000 ) ) ;
#234 = APPLICATION_PROTOCOL_DEFINITION ( 'international standard', 'config_control_design', 1994, #132 ) ;
#235 = COORDINATED_UNIVERSAL_TIME_OFFSET ( 5, 0, .BEHIND. ) ;
#236 = ORIENTED_EDGE ( 'NONE', *, *, #95, .T. ) ;
#237 = CARTESIAN_POINT ( 'NONE',  ( 15.89999999999999680, -10.09999999999999787, 0.0000000000000000000 ) ) ;
ENDSEC;
END-ISO-10303-21;
