ISO-10303-21;
HEADER;
FILE_DESCRIPTION (( 'STEP AP203' ),
    '1' );
FILE_NAME ('Web Model 17201_17202.step',
    '2021-04-14T20:41:40',
    ( '' ),
    ( '' ),
    'SwSTEP 2.0',
    'SolidWorks 2018',
    '' );
FILE_SCHEMA (( 'CONFIG_CONTROL_DESIGN' ));
ENDSEC;

DATA;
#1 = VECTOR ( 'NONE', #71, 1000.000000000000000 ) ;
#2 = VERTEX_POINT ( 'NONE', #79 ) ;
#3 = CC_DESIGN_APPROVAL ( #159, ( #147 ) ) ;
#4 = ORIENTED_EDGE ( 'NONE', *, *, #70, .T. ) ;
#5 = EDGE_CURVE ( 'NONE', #123, #2, #44, .T. ) ;
#6 = APPROVAL_PERSON_ORGANIZATION ( #83, #31, #73 ) ;
#7 = ORIENTED_EDGE ( 'NONE', *, *, #47, .F. ) ;
#8 = LOCAL_TIME ( 16, 41, 40.00000000000000000, #89 ) ;
#9 = EDGE_LOOP ( 'NONE', ( #141, #7 ) ) ;
#10 = AXIS2_PLACEMENT_3D ( 'NONE', #152, #127, #112 ) ;
#11 = LOCAL_TIME ( 16, 41, 40.00000000000000000, #68 ) ;
#12 = DIRECTION ( 'NONE',  ( -1.000000000000000000, 0.000000000000000000, 0.000000000000000000 ) ) ;
#13 = AXIS2_PLACEMENT_3D ( 'NONE', #172, #129, #60 ) ;
#14 = CALENDAR_DATE ( 2021, 14, 4 ) ;
#15 = CC_DESIGN_PERSON_AND_ORGANIZATION_ASSIGNMENT ( #74, #85, ( #66 ) ) ;
#16 = CALENDAR_DATE ( 2021, 14, 4 ) ;
#17 = PRODUCT_RELATED_PRODUCT_CATEGORY ( 'detail', '', ( #75 ) ) ;
#18 = CARTESIAN_POINT ( 'NONE',  ( 0.000000000000000000, 0.000000000000000000, 0.000000000000000000 ) ) ;
#19 = FACE_OUTER_BOUND ( 'NONE', #48, .T. ) ;
#20 = CARTESIAN_POINT ( 'NONE',  ( 25.00000000000000000, 3.061616997868383043E-15, 2.000000000000000000 ) ) ;
#21 = AXIS2_PLACEMENT_3D ( 'NONE', #114, #42, #12 ) ;
#22 = APPLICATION_CONTEXT ( 'configuration controlled 3d designs of mechanical parts and assemblies' ) ;
#23 =( NAMED_UNIT ( * ) PLANE_ANGLE_UNIT ( ) SI_UNIT ( $, .RADIAN. ) );
#24 = CARTESIAN_POINT ( 'NONE',  ( 25.00000000000000000, 3.061616997868383043E-15, 2.000000000000000000 ) ) ;
#25 = APPLICATION_PROTOCOL_DEFINITION ( 'international standard', 'config_control_design', 1994, #130 ) ;
#26 = ADVANCED_BREP_SHAPE_REPRESENTATION ( 'Web Model 17201_17202', ( #169, #13 ), #120 ) ;
#27 = SECURITY_CLASSIFICATION ( '', '', #117 ) ;
#28 = APPROVAL_DATE_TIME ( #65, #80 ) ;
#29 = PERSON ( 'UNSPECIFIED', 'UNSPECIFIED', 'UNSPECIFIED', ('UNSPECIFIED'), ('UNSPECIFIED'), ('UNSPECIFIED') ) ;
#30 = DATE_AND_TIME ( #16, #35 ) ;
#31 = APPROVAL ( #72, 'UNSPECIFIED' ) ;
#32 = CC_DESIGN_PERSON_AND_ORGANIZATION_ASSIGNMENT ( #156, #97, ( #147 ) ) ;
#33 = FACE_OUTER_BOUND ( 'NONE', #113, .T. ) ;
#34 = EDGE_CURVE ( 'NONE', #163, #109, #136, .T. ) ;
#35 = LOCAL_TIME ( 16, 41, 40.00000000000000000, #158 ) ;
#36 = DIRECTION ( 'NONE',  ( 1.000000000000000000, 0.000000000000000000, 0.000000000000000000 ) ) ;
#37 = DIRECTION ( 'NONE',  ( -0.000000000000000000, -0.000000000000000000, -1.000000000000000000 ) ) ;
#38 = DIRECTION ( 'NONE',  ( 1.000000000000000000, 0.000000000000000000, -0.000000000000000000 ) ) ;
#39 = DIRECTION ( 'NONE',  ( 0.000000000000000000, 0.000000000000000000, 1.000000000000000000 ) ) ;
#40 = PLANE ( 'NONE',  #10 ) ;
#41 = PERSON_AND_ORGANIZATION_ROLE ( 'classification_officer' ) ;
#42 = DIRECTION ( 'NONE',  ( -0.000000000000000000, -0.000000000000000000, -1.000000000000000000 ) ) ;
#43 = COORDINATED_UNIVERSAL_TIME_OFFSET ( 5, 0, .BEHIND. ) ;
#44 = CIRCLE ( 'NONE', #175, 25.00000000000000000 ) ;
#45 = MECHANICAL_CONTEXT ( 'NONE', #22, 'mechanical' ) ;
#46 = CC_DESIGN_APPROVAL ( #31, ( #27 ) ) ;
#47 = EDGE_CURVE ( 'NONE', #109, #163, #174, .T. ) ;
#48 = EDGE_LOOP ( 'NONE', ( #151, #145 ) ) ;
#49 = UNCERTAINTY_MEASURE_WITH_UNIT (LENGTH_MEASURE( 1.000000000000000082E-05 ), #61, 'distance_accuracy_value', 'NONE');
#50 = CC_DESIGN_PERSON_AND_ORGANIZATION_ASSIGNMENT ( #166, #41, ( #27 ) ) ;
#51 = PERSON_AND_ORGANIZATION ( #29, #76 ) ;
#52 = ORIENTED_EDGE ( 'NONE', *, *, #47, .T. ) ;
#53 = DIRECTION ( 'NONE',  ( 0.000000000000000000, 0.000000000000000000, 1.000000000000000000 ) ) ;
#54 = CALENDAR_DATE ( 2021, 14, 4 ) ;
#55 = CARTESIAN_POINT ( 'NONE',  ( 0.000000000000000000, 0.000000000000000000, 2.000000000000000000 ) ) ;
#56 = CC_DESIGN_DATE_AND_TIME_ASSIGNMENT ( #77, #140, ( #147 ) ) ;
#57 = CARTESIAN_POINT ( 'NONE',  ( 0.000000000000000000, 0.000000000000000000, 2.000000000000000000 ) ) ;
#58 = LINE ( 'NONE', #24, #1 ) ;
#59 = DIRECTION ( 'NONE',  ( 1.000000000000000000, 0.000000000000000000, 0.000000000000000000 ) ) ;
#60 = DIRECTION ( 'NONE',  ( 1.000000000000000000, 0.000000000000000000, 0.000000000000000000 ) ) ;
#61 =( LENGTH_UNIT ( ) NAMED_UNIT ( * ) SI_UNIT ( .MILLI., .METRE. ) );
#62 = CC_DESIGN_DATE_AND_TIME_ASSIGNMENT ( #110, #171, ( #27 ) ) ;
#63 = APPROVAL_DATE_TIME ( #30, #159 ) ;
#64 = ADVANCED_FACE ( 'NONE', ( #132 ), #40, .F. ) ;
#65 = DATE_AND_TIME ( #14, #154 ) ;
#66 = PRODUCT_DEFINITION_FORMATION_WITH_SPECIFIED_SOURCE ( 'ANY', '', #75, .NOT_KNOWN. ) ;
#67 = DIRECTION ( 'NONE',  ( 1.000000000000000000, 0.000000000000000000, 0.000000000000000000 ) ) ;
#68 = COORDINATED_UNIVERSAL_TIME_OFFSET ( 5, 0, .BEHIND. ) ;
#69 = CARTESIAN_POINT ( 'NONE',  ( 0.000000000000000000, 0.000000000000000000, 2.000000000000000000 ) ) ;
#70 = EDGE_CURVE ( 'NONE', #2, #163, #170, .T. ) ;
#71 = DIRECTION ( 'NONE',  ( -0.000000000000000000, -0.000000000000000000, -1.000000000000000000 ) ) ;
#72 = APPROVAL_STATUS ( 'not_yet_approved' ) ;
#73 = APPROVAL_ROLE ( '' ) ;
#74 = PERSON_AND_ORGANIZATION ( #29, #76 ) ;
#75 = PRODUCT ( 'Web Model 17201_17202', 'Web Model 17201_17202', '', ( #45 ) ) ;
#76 = ORGANIZATION ( 'UNSPECIFIED', 'UNSPECIFIED', '' ) ;
#77 = DATE_AND_TIME ( #119, #11 ) ;
#78 = ORIENTED_EDGE ( 'NONE', *, *, #34, .T. ) ;
#79 = CARTESIAN_POINT ( 'NONE',  ( -25.00000000000000000, 0.000000000000000000, 2.000000000000000000 ) ) ;
#80 = APPROVAL ( #173, 'UNSPECIFIED' ) ;
#81 = DIRECTION ( 'NONE',  ( 1.000000000000000000, 0.000000000000000000, 0.000000000000000000 ) ) ;
#82 = APPROVAL_ROLE ( '' ) ;
#83 = PERSON_AND_ORGANIZATION ( #29, #76 ) ;
#84 = CLOSED_SHELL ( 'NONE', ( #162, #164, #149, #64 ) ) ;
#85 = PERSON_AND_ORGANIZATION_ROLE ( 'design_supplier' ) ;
#86 = CARTESIAN_POINT ( 'NONE',  ( 0.000000000000000000, 0.000000000000000000, 2.000000000000000000 ) ) ;
#87 = DATE_AND_TIME ( #54, #8 ) ;
#88 = CALENDAR_DATE ( 2021, 14, 4 ) ;
#89 = COORDINATED_UNIVERSAL_TIME_OFFSET ( 5, 0, .BEHIND. ) ;
#90 = PRODUCT_DEFINITION_SHAPE ( 'NONE', 'NONE',  #147 ) ;
#91 = CC_DESIGN_APPROVAL ( #80, ( #66 ) ) ;
#92 = APPROVAL_PERSON_ORGANIZATION ( #124, #80, #82 ) ;
#93 = EDGE_LOOP ( 'NONE', ( #126, #99, #52, #148 ) ) ;
#94 = AXIS2_PLACEMENT_3D ( 'NONE', #86, #106, #59 ) ;
#95 = CARTESIAN_POINT ( 'NONE',  ( 0.000000000000000000, 0.000000000000000000, 0.000000000000000000 ) ) ;
#96 = SHAPE_DEFINITION_REPRESENTATION ( #90, #26 ) ;
#97 = PERSON_AND_ORGANIZATION_ROLE ( 'creator' ) ;
#98 = APPLICATION_PROTOCOL_DEFINITION ( 'international standard', 'config_control_design', 1994, #22 ) ;
#99 = ORIENTED_EDGE ( 'NONE', *, *, #168, .T. ) ;
#100 = FACE_OUTER_BOUND ( 'NONE', #93, .T. ) ;
#101 = DIRECTION ( 'NONE',  ( 0.000000000000000000, 0.000000000000000000, 1.000000000000000000 ) ) ;
#102 = DIRECTION ( 'NONE',  ( 0.000000000000000000, 0.000000000000000000, 1.000000000000000000 ) ) ;
#103 = CARTESIAN_POINT ( 'NONE',  ( -25.00000000000000000, 0.000000000000000000, 2.000000000000000000 ) ) ;
#104 = PERSON_AND_ORGANIZATION ( #29, #76 ) ;
#105 = PERSON_AND_ORGANIZATION_ROLE ( 'creator' ) ;
#106 = DIRECTION ( 'NONE',  ( 0.000000000000000000, 0.000000000000000000, 1.000000000000000000 ) ) ;
#107 = AXIS2_PLACEMENT_3D ( 'NONE', #95, #101, #36 ) ;
#108 = APPROVAL_DATE_TIME ( #87, #31 ) ;
#109 = VERTEX_POINT ( 'NONE', #153 ) ;
#110 = DATE_AND_TIME ( #88, #150 ) ;
#111 = AXIS2_PLACEMENT_3D ( 'NONE', #55, #135, #155 ) ;
#112 = DIRECTION ( 'NONE',  ( 1.000000000000000000, 0.000000000000000000, -0.000000000000000000 ) ) ;
#113 = EDGE_LOOP ( 'NONE', ( #133, #143, #4, #78 ) ) ;
#114 = CARTESIAN_POINT ( 'NONE',  ( 0.000000000000000000, 0.000000000000000000, 2.000000000000000000 ) ) ;
#115 = PERSON_AND_ORGANIZATION_ROLE ( 'design_owner' ) ;
#116 = APPROVAL_PERSON_ORGANIZATION ( #51, #159, #157 ) ;
#117 = SECURITY_CLASSIFICATION_LEVEL ( 'unclassified' ) ;
#118 = PERSON_AND_ORGANIZATION ( #29, #76 ) ;
#119 = CALENDAR_DATE ( 2021, 14, 4 ) ;
#120 =( GEOMETRIC_REPRESENTATION_CONTEXT ( 3 ) GLOBAL_UNCERTAINTY_ASSIGNED_CONTEXT ( ( #49 ) ) GLOBAL_UNIT_ASSIGNED_CONTEXT ( ( #61, #23, #142 ) ) REPRESENTATION_CONTEXT ( 'NONE', 'WORKASPACE' ) );
#121 = DESIGN_CONTEXT ( 'detailed design', #130, 'design' ) ;
#122 = AXIS2_PLACEMENT_3D ( 'NONE', #69, #39, #38 ) ;
#123 = VERTEX_POINT ( 'NONE', #20 ) ;
#124 = PERSON_AND_ORGANIZATION ( #29, #76 ) ;
#125 = PLANE ( 'NONE',  #122 ) ;
#126 = ORIENTED_EDGE ( 'NONE', *, *, #5, .F. ) ;
#127 = DIRECTION ( 'NONE',  ( 0.000000000000000000, 0.000000000000000000, 1.000000000000000000 ) ) ;
#128 = COORDINATED_UNIVERSAL_TIME_OFFSET ( 5, 0, .BEHIND. ) ;
#129 = DIRECTION ( 'NONE',  ( 0.000000000000000000, 0.000000000000000000, 1.000000000000000000 ) ) ;
#130 = APPLICATION_CONTEXT ( 'configuration controlled 3d designs of mechanical parts and assemblies' ) ;
#131 = CC_DESIGN_PERSON_AND_ORGANIZATION_ASSIGNMENT ( #118, #115, ( #75 ) ) ;
#132 = FACE_OUTER_BOUND ( 'NONE', #9, .T. ) ;
#133 = ORIENTED_EDGE ( 'NONE', *, *, #168, .F. ) ;
#134 = CC_DESIGN_PERSON_AND_ORGANIZATION_ASSIGNMENT ( #104, #105, ( #66 ) ) ;
#135 = DIRECTION ( 'NONE',  ( -0.000000000000000000, -0.000000000000000000, -1.000000000000000000 ) ) ;
#136 = CIRCLE ( 'NONE', #107, 25.00000000000000000 ) ;
#137 = CARTESIAN_POINT ( 'NONE',  ( -25.00000000000000000, 0.000000000000000000, 0.000000000000000000 ) ) ;
#138 = APPROVAL_STATUS ( 'not_yet_approved' ) ;
#139 = VECTOR ( 'NONE', #37, 1000.000000000000000 ) ;
#140 = DATE_TIME_ROLE ( 'creation_date' ) ;
#141 = ORIENTED_EDGE ( 'NONE', *, *, #34, .F. ) ;
#142 =( NAMED_UNIT ( * ) SI_UNIT ( $, .STERADIAN. ) SOLID_ANGLE_UNIT ( ) );
#143 = ORIENTED_EDGE ( 'NONE', *, *, #160, .F. ) ;
#144 = CYLINDRICAL_SURFACE ( 'NONE', #21, 25.00000000000000000 ) ;
#145 = ORIENTED_EDGE ( 'NONE', *, *, #5, .T. ) ;
#146 = CC_DESIGN_SECURITY_CLASSIFICATION ( #27, ( #66 ) ) ;
#147 = PRODUCT_DEFINITION ( 'UNKNOWN', '', #66, #121 ) ;
#148 = ORIENTED_EDGE ( 'NONE', *, *, #70, .F. ) ;
#149 = ADVANCED_FACE ( 'NONE', ( #19 ), #125, .T. ) ;
#150 = LOCAL_TIME ( 16, 41, 40.00000000000000000, #128 ) ;
#151 = ORIENTED_EDGE ( 'NONE', *, *, #160, .T. ) ;
#152 = CARTESIAN_POINT ( 'NONE',  ( 0.000000000000000000, 0.000000000000000000, 0.000000000000000000 ) ) ;
#153 = CARTESIAN_POINT ( 'NONE',  ( 25.00000000000000000, 3.061616997868383043E-15, 0.000000000000000000 ) ) ;
#154 = LOCAL_TIME ( 16, 41, 40.00000000000000000, #43 ) ;
#155 = DIRECTION ( 'NONE',  ( -1.000000000000000000, 0.000000000000000000, 0.000000000000000000 ) ) ;
#156 = PERSON_AND_ORGANIZATION ( #29, #76 ) ;
#157 = APPROVAL_ROLE ( '' ) ;
#158 = COORDINATED_UNIVERSAL_TIME_OFFSET ( 5, 0, .BEHIND. ) ;
#159 = APPROVAL ( #138, 'UNSPECIFIED' ) ;
#160 = EDGE_CURVE ( 'NONE', #2, #123, #167, .T. ) ;
#161 = CYLINDRICAL_SURFACE ( 'NONE', #111, 25.00000000000000000 ) ;
#162 = ADVANCED_FACE ( 'NONE', ( #100 ), #161, .T. ) ;
#163 = VERTEX_POINT ( 'NONE', #137 ) ;
#164 = ADVANCED_FACE ( 'NONE', ( #33 ), #144, .T. ) ;
#165 = AXIS2_PLACEMENT_3D ( 'NONE', #18, #102, #67 ) ;
#166 = PERSON_AND_ORGANIZATION ( #29, #76 ) ;
#167 = CIRCLE ( 'NONE', #94, 25.00000000000000000 ) ;
#168 = EDGE_CURVE ( 'NONE', #123, #109, #58, .T. ) ;
#169 = MANIFOLD_SOLID_BREP ( 'Boss-Extrude1', #84 ) ;
#170 = LINE ( 'NONE', #103, #139 ) ;
#171 = DATE_TIME_ROLE ( 'classification_date' ) ;
#172 = CARTESIAN_POINT ( 'NONE',  ( 0.000000000000000000, 0.000000000000000000, 0.000000000000000000 ) ) ;
#173 = APPROVAL_STATUS ( 'not_yet_approved' ) ;
#174 = CIRCLE ( 'NONE', #165, 25.00000000000000000 ) ;
#175 = AXIS2_PLACEMENT_3D ( 'NONE', #57, #53, #81 ) ;
ENDSEC;
END-ISO-10303-21;
