ISO-10303-21;
HEADER;
FILE_DESCRIPTION (( 'STEP AP203' ),
    '1' );
FILE_NAME ('34430_37022.step',
    '2017-09-06T15:51:30',
    ( '' ),
    ( '' ),
    'SwSTEP 2.0',
    'SolidWorks 2016',
    '' );
FILE_SCHEMA (( 'CONFIG_CONTROL_DESIGN' ));
ENDSEC;

DATA;
#1 = DIRECTION ( 'NONE',  ( 1.000000000000000000, 0.0000000000000000000, 0.0000000000000000000 ) ) ;
#2 = VECTOR ( 'NONE', #90, 1000.000000000000000 ) ;
#3 = APPROVAL ( #126, 'UNSPECIFIED' ) ;
#4 = PERSON_AND_ORGANIZATION_ROLE ( 'creator' ) ;
#5 = PRODUCT_RELATED_PRODUCT_CATEGORY ( 'detail', '', ( #19 ) ) ;
#6 = LINE ( 'NONE', #157, #2 ) ;
#7 = DIRECTION ( 'NONE',  ( 0.0000000000000000000, 0.0000000000000000000, 1.000000000000000000 ) ) ;
#8 = COORDINATED_UNIVERSAL_TIME_OFFSET ( 5, 0, .BEHIND. ) ;
#9 = EDGE_CURVE ( 'NONE', #71, #92, #141, .T. ) ;
#10 = PERSON_AND_ORGANIZATION ( #101, #99 ) ;
#11 = CALENDAR_DATE ( 2017, 6, 9 ) ;
#12 =( GEOMETRIC_REPRESENTATION_CONTEXT ( 3 ) GLOBAL_UNCERTAINTY_ASSIGNED_CONTEXT ( ( #171 ) ) GLOBAL_UNIT_ASSIGNED_CONTEXT ( ( #25, #120, #146 ) ) REPRESENTATION_CONTEXT ( 'NONE', 'WORKASPACE' ) );
#13 = LOCAL_TIME ( 11, 51, 30.00000000000000000, #8 ) ;
#14 = CC_DESIGN_PERSON_AND_ORGANIZATION_ASSIGNMENT ( #38, #4, ( #85 ) ) ;
#15 = LOCAL_TIME ( 11, 51, 30.00000000000000000, #61 ) ;
#16 = SECURITY_CLASSIFICATION_LEVEL ( 'unclassified' ) ;
#17 = DATE_TIME_ROLE ( 'classification_date' ) ;
#18 = CALENDAR_DATE ( 2017, 6, 9 ) ;
#19 = PRODUCT ( '34430_37022', '34430_37022', '', ( #83 ) ) ;
#20 = CC_DESIGN_APPROVAL ( #3, ( #85 ) ) ;
#21 = APPROVAL_DATE_TIME ( #166, #55 ) ;
#22 = LINE ( 'NONE', #135, #107 ) ;
#23 = APPLICATION_CONTEXT ( 'configuration controlled 3d designs of mechanical parts and assemblies' ) ;
#24 = CC_DESIGN_DATE_AND_TIME_ASSIGNMENT ( #96, #17, ( #97 ) ) ;
#25 =( LENGTH_UNIT ( ) NAMED_UNIT ( * ) SI_UNIT ( .MILLI., .METRE. ) );
#26 = PERSON_AND_ORGANIZATION ( #101, #99 ) ;
#27 = CARTESIAN_POINT ( 'NONE',  ( 0.0000000000000000000, 0.0000000000000000000, 0.0000000000000000000 ) ) ;
#28 = ORIENTED_EDGE ( 'NONE', *, *, #124, .F. ) ;
#29 = APPROVAL_ROLE ( '' ) ;
#30 = APPROVAL_ROLE ( '' ) ;
#31 = AXIS2_PLACEMENT_3D ( 'NONE', #56, #54, #108 ) ;
#32 = APPROVAL_ROLE ( '' ) ;
#33 = APPROVAL_DATE_TIME ( #48, #145 ) ;
#34 = CIRCLE ( 'NONE', #169, 25.00000000000000000 ) ;
#35 = CARTESIAN_POINT ( 'NONE',  ( 0.0000000000000000000, 0.0000000000000000000, 0.0000000000000000000 ) ) ;
#36 = ORIENTED_EDGE ( 'NONE', *, *, #9, .T. ) ;
#37 = ADVANCED_FACE ( 'NONE', ( #112 ), #151, .T. ) ;
#38 = PERSON_AND_ORGANIZATION ( #101, #99 ) ;
#39 = APPROVAL_PERSON_ORGANIZATION ( #10, #3, #29 ) ;
#40 = CARTESIAN_POINT ( 'NONE',  ( -25.00000000000000000, 0.0000000000000000000, 6.000000000000000000 ) ) ;
#41 = AXIS2_PLACEMENT_3D ( 'NONE', #133, #118, #69 ) ;
#42 = DIRECTION ( 'NONE',  ( 0.0000000000000000000, 0.0000000000000000000, 1.000000000000000000 ) ) ;
#43 = PERSON_AND_ORGANIZATION_ROLE ( 'creator' ) ;
#44 = CC_DESIGN_SECURITY_CLASSIFICATION ( #97, ( #91 ) ) ;
#45 = FACE_OUTER_BOUND ( 'NONE', #162, .T. ) ;
#46 = CC_DESIGN_PERSON_AND_ORGANIZATION_ASSIGNMENT ( #26, #73, ( #91 ) ) ;
#47 = APPROVAL_DATE_TIME ( #82, #3 ) ;
#48 = DATE_AND_TIME ( #129, #127 ) ;
#49 = EDGE_CURVE ( 'NONE', #92, #71, #53, .T. ) ;
#50 = DIRECTION ( 'NONE',  ( 0.0000000000000000000, 0.0000000000000000000, 1.000000000000000000 ) ) ;
#51 = PLANE ( 'NONE',  #59 ) ;
#52 = DIRECTION ( 'NONE',  ( 1.000000000000000000, 0.0000000000000000000, 0.0000000000000000000 ) ) ;
#53 = CIRCLE ( 'NONE', #152, 25.00000000000000000 ) ;
#54 = DIRECTION ( 'NONE',  ( -0.0000000000000000000, -0.0000000000000000000, -1.000000000000000000 ) ) ;
#55 = APPROVAL ( #113, 'UNSPECIFIED' ) ;
#56 = CARTESIAN_POINT ( 'NONE',  ( 0.0000000000000000000, 0.0000000000000000000, 6.000000000000000000 ) ) ;
#57 = VERTEX_POINT ( 'NONE', #119 ) ;
#58 = AXIS2_PLACEMENT_3D ( 'NONE', #88, #142, #65 ) ;
#59 = AXIS2_PLACEMENT_3D ( 'NONE', #173, #134, #121 ) ;
#60 = ORIENTED_EDGE ( 'NONE', *, *, #124, .T. ) ;
#61 = COORDINATED_UNIVERSAL_TIME_OFFSET ( 5, 0, .BEHIND. ) ;
#62 = CC_DESIGN_APPROVAL ( #145, ( #97 ) ) ;
#63 = LOCAL_TIME ( 11, 51, 30.00000000000000000, #102 ) ;
#64 = ORIENTED_EDGE ( 'NONE', *, *, #174, .T. ) ;
#65 = DIRECTION ( 'NONE',  ( -1.000000000000000000, 0.0000000000000000000, 0.0000000000000000000 ) ) ;
#66 = FACE_OUTER_BOUND ( 'NONE', #93, .T. ) ;
#67 = ADVANCED_FACE ( 'NONE', ( #156 ), #51, .T. ) ;
#68 = CC_DESIGN_PERSON_AND_ORGANIZATION_ASSIGNMENT ( #74, #168, ( #97 ) ) ;
#69 = DIRECTION ( 'NONE',  ( 1.000000000000000000, 0.0000000000000000000, -0.0000000000000000000 ) ) ;
#70 = COORDINATED_UNIVERSAL_TIME_OFFSET ( 5, 0, .BEHIND. ) ;
#71 = VERTEX_POINT ( 'NONE', #40 ) ;
#72 = EDGE_CURVE ( 'NONE', #57, #98, #143, .T. ) ;
#73 = PERSON_AND_ORGANIZATION_ROLE ( 'design_supplier' ) ;
#74 = PERSON_AND_ORGANIZATION ( #101, #99 ) ;
#75 = CC_DESIGN_APPROVAL ( #55, ( #91 ) ) ;
#76 = ORIENTED_EDGE ( 'NONE', *, *, #139, .F. ) ;
#77 = MANIFOLD_SOLID_BREP ( 'Boss-Extrude1', #104 ) ;
#78 = DIRECTION ( 'NONE',  ( 1.000000000000000000, 0.0000000000000000000, 0.0000000000000000000 ) ) ;
#79 = DIRECTION ( 'NONE',  ( -0.0000000000000000000, -0.0000000000000000000, -1.000000000000000000 ) ) ;
#80 = COORDINATED_UNIVERSAL_TIME_OFFSET ( 5, 0, .BEHIND. ) ;
#81 = DIRECTION ( 'NONE',  ( 0.0000000000000000000, 0.0000000000000000000, 1.000000000000000000 ) ) ;
#82 = DATE_AND_TIME ( #11, #13 ) ;
#83 = MECHANICAL_CONTEXT ( 'NONE', #23, 'mechanical' ) ;
#84 = PERSON_AND_ORGANIZATION ( #101, #99 ) ;
#85 = PRODUCT_DEFINITION ( 'UNKNOWN', '', #91, #164 ) ;
#86 = CC_DESIGN_PERSON_AND_ORGANIZATION_ASSIGNMENT ( #89, #95, ( #19 ) ) ;
#87 = ORIENTED_EDGE ( 'NONE', *, *, #9, .F. ) ;
#88 = CARTESIAN_POINT ( 'NONE',  ( 0.0000000000000000000, 0.0000000000000000000, 6.000000000000000000 ) ) ;
#89 = PERSON_AND_ORGANIZATION ( #101, #99 ) ;
#90 = DIRECTION ( 'NONE',  ( -0.0000000000000000000, -0.0000000000000000000, -1.000000000000000000 ) ) ;
#91 = PRODUCT_DEFINITION_FORMATION_WITH_SPECIFIED_SOURCE ( 'ANY', '', #19, .NOT_KNOWN. ) ;
#92 = VERTEX_POINT ( 'NONE', #165 ) ;
#93 = EDGE_LOOP ( 'NONE', ( #140, #76 ) ) ;
#94 = CARTESIAN_POINT ( 'NONE',  ( 0.0000000000000000000, 0.0000000000000000000, 6.000000000000000000 ) ) ;
#95 = PERSON_AND_ORGANIZATION_ROLE ( 'design_owner' ) ;
#96 = DATE_AND_TIME ( #150, #63 ) ;
#97 = SECURITY_CLASSIFICATION ( '', '', #16 ) ;
#98 = VERTEX_POINT ( 'NONE', #160 ) ;
#99 = ORGANIZATION ( 'UNSPECIFIED', 'UNSPECIFIED', '' ) ;
#100 = AXIS2_PLACEMENT_3D ( 'NONE', #27, #7, #136 ) ;
#101 = PERSON ( 'UNSPECIFIED', 'UNSPECIFIED', 'UNSPECIFIED', ('UNSPECIFIED'), ('UNSPECIFIED'), ('UNSPECIFIED') ) ;
#102 = COORDINATED_UNIVERSAL_TIME_OFFSET ( 5, 0, .BEHIND. ) ;
#103 = ADVANCED_FACE ( 'NONE', ( #45 ), #105, .T. ) ;
#104 = CLOSED_SHELL ( 'NONE', ( #103, #37, #67, #110 ) ) ;
#105 = CYLINDRICAL_SURFACE ( 'NONE', #31, 25.00000000000000000 ) ;
#106 = CC_DESIGN_PERSON_AND_ORGANIZATION_ASSIGNMENT ( #84, #43, ( #91 ) ) ;
#107 = VECTOR ( 'NONE', #79, 1000.000000000000000 ) ;
#108 = DIRECTION ( 'NONE',  ( -1.000000000000000000, 0.0000000000000000000, 0.0000000000000000000 ) ) ;
#109 = APPROVAL_PERSON_ORGANIZATION ( #154, #145, #30 ) ;
#110 = ADVANCED_FACE ( 'NONE', ( #66 ), #158, .F. ) ;
#111 = EDGE_LOOP ( 'NONE', ( #36, #149 ) ) ;
#112 = FACE_OUTER_BOUND ( 'NONE', #128, .T. ) ;
#113 = APPROVAL_STATUS ( 'not_yet_approved' ) ;
#114 = APPLICATION_PROTOCOL_DEFINITION ( 'international standard', 'config_control_design', 1994, #123 ) ;
#115 = SHAPE_DEFINITION_REPRESENTATION ( #155, #175 ) ;
#116 = ORIENTED_EDGE ( 'NONE', *, *, #72, .T. ) ;
#117 = CARTESIAN_POINT ( 'NONE',  ( 0.0000000000000000000, 0.0000000000000000000, 6.000000000000000000 ) ) ;
#118 = DIRECTION ( 'NONE',  ( 0.0000000000000000000, 0.0000000000000000000, 1.000000000000000000 ) ) ;
#119 = CARTESIAN_POINT ( 'NONE',  ( -25.00000000000000000, 0.0000000000000000000, 0.0000000000000000000 ) ) ;
#120 =( NAMED_UNIT ( * ) PLANE_ANGLE_UNIT ( ) SI_UNIT ( $, .RADIAN. ) );
#121 = DIRECTION ( 'NONE',  ( 1.000000000000000000, 0.0000000000000000000, -0.0000000000000000000 ) ) ;
#122 = APPLICATION_PROTOCOL_DEFINITION ( 'international standard', 'config_control_design', 1994, #23 ) ;
#123 = APPLICATION_CONTEXT ( 'configuration controlled 3d designs of mechanical parts and assemblies' ) ;
#124 = EDGE_CURVE ( 'NONE', #71, #57, #6, .T. ) ;
#125 = ORIENTED_EDGE ( 'NONE', *, *, #174, .F. ) ;
#126 = APPROVAL_STATUS ( 'not_yet_approved' ) ;
#127 = LOCAL_TIME ( 11, 51, 30.00000000000000000, #80 ) ;
#128 = EDGE_LOOP ( 'NONE', ( #125, #87, #60, #116 ) ) ;
#129 = CALENDAR_DATE ( 2017, 6, 9 ) ;
#130 = CC_DESIGN_DATE_AND_TIME_ASSIGNMENT ( #147, #167, ( #85 ) ) ;
#131 = ORIENTED_EDGE ( 'NONE', *, *, #139, .T. ) ;
#132 = CARTESIAN_POINT ( 'NONE',  ( 0.0000000000000000000, 0.0000000000000000000, 0.0000000000000000000 ) ) ;
#133 = CARTESIAN_POINT ( 'NONE',  ( 0.0000000000000000000, 0.0000000000000000000, 0.0000000000000000000 ) ) ;
#134 = DIRECTION ( 'NONE',  ( 0.0000000000000000000, 0.0000000000000000000, 1.000000000000000000 ) ) ;
#135 = CARTESIAN_POINT ( 'NONE',  ( 25.00000000000000000, 3.061616997868383000E-015, 6.000000000000000000 ) ) ;
#136 = DIRECTION ( 'NONE',  ( 1.000000000000000000, 0.0000000000000000000, 0.0000000000000000000 ) ) ;
#137 = ORIENTED_EDGE ( 'NONE', *, *, #49, .F. ) ;
#138 = CALENDAR_DATE ( 2017, 6, 9 ) ;
#139 = EDGE_CURVE ( 'NONE', #98, #57, #34, .T. ) ;
#140 = ORIENTED_EDGE ( 'NONE', *, *, #72, .F. ) ;
#141 = CIRCLE ( 'NONE', #148, 25.00000000000000000 ) ;
#142 = DIRECTION ( 'NONE',  ( -0.0000000000000000000, -0.0000000000000000000, -1.000000000000000000 ) ) ;
#143 = CIRCLE ( 'NONE', #172, 25.00000000000000000 ) ;
#144 = APPROVAL_PERSON_ORGANIZATION ( #159, #55, #32 ) ;
#145 = APPROVAL ( #163, 'UNSPECIFIED' ) ;
#146 =( NAMED_UNIT ( * ) SI_UNIT ( $, .STERADIAN. ) SOLID_ANGLE_UNIT ( ) );
#147 = DATE_AND_TIME ( #138, #170 ) ;
#148 = AXIS2_PLACEMENT_3D ( 'NONE', #117, #50, #78 ) ;
#149 = ORIENTED_EDGE ( 'NONE', *, *, #49, .T. ) ;
#150 = CALENDAR_DATE ( 2017, 6, 9 ) ;
#151 = CYLINDRICAL_SURFACE ( 'NONE', #58, 25.00000000000000000 ) ;
#152 = AXIS2_PLACEMENT_3D ( 'NONE', #94, #42, #161 ) ;
#153 = DIRECTION ( 'NONE',  ( 0.0000000000000000000, 0.0000000000000000000, 1.000000000000000000 ) ) ;
#154 = PERSON_AND_ORGANIZATION ( #101, #99 ) ;
#155 = PRODUCT_DEFINITION_SHAPE ( 'NONE', 'NONE',  #85 ) ;
#156 = FACE_OUTER_BOUND ( 'NONE', #111, .T. ) ;
#157 = CARTESIAN_POINT ( 'NONE',  ( -25.00000000000000000, 0.0000000000000000000, 6.000000000000000000 ) ) ;
#158 = PLANE ( 'NONE',  #41 ) ;
#159 = PERSON_AND_ORGANIZATION ( #101, #99 ) ;
#160 = CARTESIAN_POINT ( 'NONE',  ( 25.00000000000000000, 3.061616997868383000E-015, 0.0000000000000000000 ) ) ;
#161 = DIRECTION ( 'NONE',  ( 1.000000000000000000, 0.0000000000000000000, 0.0000000000000000000 ) ) ;
#162 = EDGE_LOOP ( 'NONE', ( #137, #64, #131, #28 ) ) ;
#163 = APPROVAL_STATUS ( 'not_yet_approved' ) ;
#164 = DESIGN_CONTEXT ( 'detailed design', #123, 'design' ) ;
#165 = CARTESIAN_POINT ( 'NONE',  ( 25.00000000000000000, 3.061616997868383000E-015, 6.000000000000000000 ) ) ;
#166 = DATE_AND_TIME ( #18, #15 ) ;
#167 = DATE_TIME_ROLE ( 'creation_date' ) ;
#168 = PERSON_AND_ORGANIZATION_ROLE ( 'classification_officer' ) ;
#169 = AXIS2_PLACEMENT_3D ( 'NONE', #132, #81, #1 ) ;
#170 = LOCAL_TIME ( 11, 51, 30.00000000000000000, #70 ) ;
#171 = UNCERTAINTY_MEASURE_WITH_UNIT (LENGTH_MEASURE( 1.000000000000000100E-005 ), #25, 'distance_accuracy_value', 'NONE');
#172 = AXIS2_PLACEMENT_3D ( 'NONE', #35, #153, #52 ) ;
#173 = CARTESIAN_POINT ( 'NONE',  ( 0.0000000000000000000, 0.0000000000000000000, 6.000000000000000000 ) ) ;
#174 = EDGE_CURVE ( 'NONE', #92, #98, #22, .T. ) ;
#175 = ADVANCED_BREP_SHAPE_REPRESENTATION ( '34430_37022', ( #77, #100 ), #12 ) ;
ENDSEC;
END-ISO-10303-21;
