ISO-10303-21;
HEADER;
FILE_DESCRIPTION (( 'STEP AP203' ),
    '1' );
FILE_NAME ('Web Model 19841_19882.step',
    '2022-04-06T15:17:29',
    ( 'WC' ),
    ( 'Windows Central' ),
    'SwSTEP 2.0',
    'SolidWorks 2021',
    '' );
FILE_SCHEMA (( 'CONFIG_CONTROL_DESIGN' ));
ENDSEC;

DATA;
#1 = CARTESIAN_POINT ( 'NONE',  ( 0.000000000000000000, 0.000000000000000000, 2.000000000000000000 ) ) ;
#2 =( NAMED_UNIT ( * ) PLANE_ANGLE_UNIT ( ) SI_UNIT ( $, .RADIAN. ) );
#3 = ORIENTED_EDGE ( 'NONE', *, *, #63, .F. ) ;
#4 = APPLICATION_CONTEXT ( 'configuration controlled 3d designs of mechanical parts and assemblies' ) ;
#5 = APPROVAL_PERSON_ORGANIZATION ( #9, #44, #128 ) ;
#6 = LINE ( 'NONE', #160, #110 ) ;
#7 = DIRECTION ( 'NONE',  ( 1.000000000000000000, 0.000000000000000000, 0.000000000000000000 ) ) ;
#8 = PERSON_AND_ORGANIZATION ( #19, #15 ) ;
#9 = PERSON_AND_ORGANIZATION ( #19, #15 ) ;
#10 = LOCAL_TIME ( 11, 17, 29.00000000000000000, #101 ) ;
#11 = COORDINATED_UNIVERSAL_TIME_OFFSET ( 5, 0, .BEHIND. ) ;
#12 = ORIENTED_EDGE ( 'NONE', *, *, #74, .F. ) ;
#13 = PERSON_AND_ORGANIZATION_ROLE ( 'design_supplier' ) ;
#14 = EDGE_CURVE ( 'NONE', #143, #71, #21, .T. ) ;
#15 = ORGANIZATION ( 'UNSPECIFIED', 'UNSPECIFIED', '' ) ;
#16 = CC_DESIGN_PERSON_AND_ORGANIZATION_ASSIGNMENT ( #8, #112, ( #140 ) ) ;
#17 = DESIGN_CONTEXT ( 'detailed design', #169, 'design' ) ;
#18 = CARTESIAN_POINT ( 'NONE',  ( 0.000000000000000000, 0.000000000000000000, 2.000000000000000000 ) ) ;
#19 = PERSON ( 'UNSPECIFIED', 'UNSPECIFIED', 'UNSPECIFIED', ('UNSPECIFIED'), ('UNSPECIFIED'), ('UNSPECIFIED') ) ;
#20 = ADVANCED_FACE ( 'NONE', ( #158 ), #22, .T. ) ;
#21 = CIRCLE ( 'NONE', #49, 25.00000000000000000 ) ;
#22 = CYLINDRICAL_SURFACE ( 'NONE', #155, 25.00000000000000000 ) ;
#23 = ORIENTED_EDGE ( 'NONE', *, *, #139, .T. ) ;
#24 = LOCAL_TIME ( 11, 17, 29.00000000000000000, #11 ) ;
#25 = CIRCLE ( 'NONE', #123, 25.00000000000000000 ) ;
#26 = APPLICATION_PROTOCOL_DEFINITION ( 'international standard', 'config_control_design', 1994, #169 ) ;
#27 = DIRECTION ( 'NONE',  ( 1.000000000000000000, 0.000000000000000000, 0.000000000000000000 ) ) ;
#28 = APPROVAL_DATE_TIME ( #152, #58 ) ;
#29 = ORIENTED_EDGE ( 'NONE', *, *, #14, .T. ) ;
#30 = DIRECTION ( 'NONE',  ( 0.000000000000000000, 0.000000000000000000, 1.000000000000000000 ) ) ;
#31 = LOCAL_TIME ( 11, 17, 29.00000000000000000, #76 ) ;
#32 = DIRECTION ( 'NONE',  ( 1.000000000000000000, 0.000000000000000000, -0.000000000000000000 ) ) ;
#33 = CARTESIAN_POINT ( 'NONE',  ( -25.00000000000000000, 0.000000000000000000, 2.000000000000000000 ) ) ;
#34 = APPROVAL ( #165, 'UNSPECIFIED' ) ;
#35 = CARTESIAN_POINT ( 'NONE',  ( 25.00000000000000000, 3.061616997868383043E-15, 0.000000000000000000 ) ) ;
#36 = COORDINATED_UNIVERSAL_TIME_OFFSET ( 5, 0, .BEHIND. ) ;
#37 = PERSON_AND_ORGANIZATION_ROLE ( 'design_owner' ) ;
#38 = PERSON_AND_ORGANIZATION ( #19, #15 ) ;
#39 = DATE_AND_TIME ( #153, #31 ) ;
#40 = AXIS2_PLACEMENT_3D ( 'NONE', #18, #68, #118 ) ;
#41 = CC_DESIGN_APPROVAL ( #44, ( #117 ) ) ;
#42 = DIRECTION ( 'NONE',  ( 1.000000000000000000, 0.000000000000000000, -0.000000000000000000 ) ) ;
#43 = CARTESIAN_POINT ( 'NONE',  ( 25.00000000000000000, 3.061616997868383043E-15, 2.000000000000000000 ) ) ;
#44 = APPROVAL ( #168, 'UNSPECIFIED' ) ;
#45 = CARTESIAN_POINT ( 'NONE',  ( 0.000000000000000000, 0.000000000000000000, 0.000000000000000000 ) ) ;
#46 = EDGE_LOOP ( 'NONE', ( #136, #137, #29, #92 ) ) ;
#47 = CARTESIAN_POINT ( 'NONE',  ( 25.00000000000000000, 3.061616997868383043E-15, 2.000000000000000000 ) ) ;
#48 = APPROVAL_DATE_TIME ( #84, #44 ) ;
#49 = AXIS2_PLACEMENT_3D ( 'NONE', #162, #30, #7 ) ;
#50 = CC_DESIGN_SECURITY_CLASSIFICATION ( #117, ( #111 ) ) ;
#51 = COORDINATED_UNIVERSAL_TIME_OFFSET ( 5, 0, .BEHIND. ) ;
#52 = APPROVAL_STATUS ( 'not_yet_approved' ) ;
#53 = PERSON_AND_ORGANIZATION ( #19, #15 ) ;
#54 = LOCAL_TIME ( 11, 17, 29.00000000000000000, #51 ) ;
#55 = PERSON_AND_ORGANIZATION ( #19, #15 ) ;
#56 = VERTEX_POINT ( 'NONE', #47 ) ;
#57 = ORIENTED_EDGE ( 'NONE', *, *, #14, .F. ) ;
#58 = APPROVAL ( #52, 'UNSPECIFIED' ) ;
#59 = DIRECTION ( 'NONE',  ( 0.000000000000000000, 0.000000000000000000, 1.000000000000000000 ) ) ;
#60 = ORIENTED_EDGE ( 'NONE', *, *, #63, .T. ) ;
#61 = LINE ( 'NONE', #43, #93 ) ;
#62 = PERSON_AND_ORGANIZATION ( #19, #15 ) ;
#63 = EDGE_CURVE ( 'NONE', #78, #56, #166, .T. ) ;
#64 = DATE_TIME_ROLE ( 'classification_date' ) ;
#65 =( GEOMETRIC_REPRESENTATION_CONTEXT ( 3 ) GLOBAL_UNCERTAINTY_ASSIGNED_CONTEXT ( ( #67 ) ) GLOBAL_UNIT_ASSIGNED_CONTEXT ( ( #69, #2, #79 ) ) REPRESENTATION_CONTEXT ( 'NONE', 'WORKASPACE' ) );
#66 = PERSON_AND_ORGANIZATION ( #19, #15 ) ;
#67 = UNCERTAINTY_MEASURE_WITH_UNIT (LENGTH_MEASURE( 1.000000000000000082E-05 ), #69, 'distance_accuracy_value', 'NONE');
#68 = DIRECTION ( 'NONE',  ( -0.000000000000000000, -0.000000000000000000, -1.000000000000000000 ) ) ;
#69 =( LENGTH_UNIT ( ) NAMED_UNIT ( * ) SI_UNIT ( .MILLI., .METRE. ) );
#70 = CC_DESIGN_PERSON_AND_ORGANIZATION_ASSIGNMENT ( #38, #89, ( #111 ) ) ;
#71 = VERTEX_POINT ( 'NONE', #97 ) ;
#72 = FACE_OUTER_BOUND ( 'NONE', #115, .T. ) ;
#73 = DIRECTION ( 'NONE',  ( 1.000000000000000000, 0.000000000000000000, 0.000000000000000000 ) ) ;
#74 = EDGE_CURVE ( 'NONE', #56, #143, #61, .T. ) ;
#75 = CC_DESIGN_PERSON_AND_ORGANIZATION_ASSIGNMENT ( #66, #13, ( #111 ) ) ;
#76 = COORDINATED_UNIVERSAL_TIME_OFFSET ( 5, 0, .BEHIND. ) ;
#77 = APPROVAL_PERSON_ORGANIZATION ( #62, #34, #125 ) ;
#78 = VERTEX_POINT ( 'NONE', #33 ) ;
#79 =( NAMED_UNIT ( * ) SI_UNIT ( $, .STERADIAN. ) SOLID_ANGLE_UNIT ( ) );
#80 = MECHANICAL_CONTEXT ( 'NONE', #4, 'mechanical' ) ;
#81 = DIRECTION ( 'NONE',  ( -0.000000000000000000, -0.000000000000000000, -1.000000000000000000 ) ) ;
#82 = PLANE ( 'NONE',  #163 ) ;
#83 = DIRECTION ( 'NONE',  ( 0.000000000000000000, 0.000000000000000000, 1.000000000000000000 ) ) ;
#84 = DATE_AND_TIME ( #173, #54 ) ;
#85 = CC_DESIGN_DATE_AND_TIME_ASSIGNMENT ( #170, #86, ( #140 ) ) ;
#86 = DATE_TIME_ROLE ( 'creation_date' ) ;
#87 = APPLICATION_PROTOCOL_DEFINITION ( 'international standard', 'config_control_design', 1994, #4 ) ;
#88 = AXIS2_PLACEMENT_3D ( 'NONE', #159, #108, #42 ) ;
#89 = PERSON_AND_ORGANIZATION_ROLE ( 'creator' ) ;
#90 = CALENDAR_DATE ( 2022, 6, 4 ) ;
#91 = EDGE_CURVE ( 'NONE', #78, #71, #6, .T. ) ;
#92 = ORIENTED_EDGE ( 'NONE', *, *, #91, .F. ) ;
#93 = VECTOR ( 'NONE', #146, 1000.000000000000000 ) ;
#94 = DIRECTION ( 'NONE',  ( 0.000000000000000000, 0.000000000000000000, 1.000000000000000000 ) ) ;
#95 = CC_DESIGN_APPROVAL ( #58, ( #111 ) ) ;
#96 = CIRCLE ( 'NONE', #134, 25.00000000000000000 ) ;
#97 = CARTESIAN_POINT ( 'NONE',  ( -25.00000000000000000, 0.000000000000000000, 0.000000000000000000 ) ) ;
#98 = DIRECTION ( 'NONE',  ( 0.000000000000000000, 0.000000000000000000, 1.000000000000000000 ) ) ;
#99 = FACE_OUTER_BOUND ( 'NONE', #144, .T. ) ;
#100 = CARTESIAN_POINT ( 'NONE',  ( 0.000000000000000000, 0.000000000000000000, 0.000000000000000000 ) ) ;
#101 = COORDINATED_UNIVERSAL_TIME_OFFSET ( 5, 0, .BEHIND. ) ;
#102 = APPROVAL_PERSON_ORGANIZATION ( #53, #58, #116 ) ;
#103 = CC_DESIGN_DATE_AND_TIME_ASSIGNMENT ( #39, #64, ( #117 ) ) ;
#104 = DIRECTION ( 'NONE',  ( 1.000000000000000000, 0.000000000000000000, 0.000000000000000000 ) ) ;
#105 = CARTESIAN_POINT ( 'NONE',  ( 0.000000000000000000, 0.000000000000000000, 0.000000000000000000 ) ) ;
#106 = CARTESIAN_POINT ( 'NONE',  ( 0.000000000000000000, 0.000000000000000000, 2.000000000000000000 ) ) ;
#107 = CARTESIAN_POINT ( 'NONE',  ( 0.000000000000000000, 0.000000000000000000, 2.000000000000000000 ) ) ;
#108 = DIRECTION ( 'NONE',  ( 0.000000000000000000, 0.000000000000000000, 1.000000000000000000 ) ) ;
#109 = CALENDAR_DATE ( 2022, 6, 4 ) ;
#110 = VECTOR ( 'NONE', #81, 1000.000000000000000 ) ;
#111 = PRODUCT_DEFINITION_FORMATION_WITH_SPECIFIED_SOURCE ( 'ANY', '', #157, .NOT_KNOWN. ) ;
#112 = PERSON_AND_ORGANIZATION_ROLE ( 'creator' ) ;
#113 = DATE_AND_TIME ( #127, #148 ) ;
#114 = APPROVAL_DATE_TIME ( #113, #34 ) ;
#115 = EDGE_LOOP ( 'NONE', ( #126, #57 ) ) ;
#116 = APPROVAL_ROLE ( '' ) ;
#117 = SECURITY_CLASSIFICATION ( '', '', #141 ) ;
#118 = DIRECTION ( 'NONE',  ( -1.000000000000000000, 0.000000000000000000, 0.000000000000000000 ) ) ;
#119 = DIRECTION ( 'NONE',  ( 1.000000000000000000, 0.000000000000000000, 0.000000000000000000 ) ) ;
#120 = PLANE ( 'NONE',  #88 ) ;
#121 = EDGE_LOOP ( 'NONE', ( #60, #23 ) ) ;
#122 = ADVANCED_FACE ( 'NONE', ( #99 ), #130, .T. ) ;
#123 = AXIS2_PLACEMENT_3D ( 'NONE', #45, #94, #119 ) ;
#124 = PERSON_AND_ORGANIZATION ( #19, #15 ) ;
#125 = APPROVAL_ROLE ( '' ) ;
#126 = ORIENTED_EDGE ( 'NONE', *, *, #132, .F. ) ;
#127 = CALENDAR_DATE ( 2022, 6, 4 ) ;
#128 = APPROVAL_ROLE ( '' ) ;
#129 = CLOSED_SHELL ( 'NONE', ( #20, #122, #164, #149 ) ) ;
#130 = CYLINDRICAL_SURFACE ( 'NONE', #40, 25.00000000000000000 ) ;
#131 = PRODUCT_DEFINITION_SHAPE ( 'NONE', 'NONE',  #140 ) ;
#132 = EDGE_CURVE ( 'NONE', #71, #143, #25, .T. ) ;
#133 = FACE_OUTER_BOUND ( 'NONE', #121, .T. ) ;
#134 = AXIS2_PLACEMENT_3D ( 'NONE', #1, #59, #104 ) ;
#135 = CC_DESIGN_PERSON_AND_ORGANIZATION_ASSIGNMENT ( #55, #147, ( #117 ) ) ;
#136 = ORIENTED_EDGE ( 'NONE', *, *, #139, .F. ) ;
#137 = ORIENTED_EDGE ( 'NONE', *, *, #74, .T. ) ;
#138 = SHAPE_DEFINITION_REPRESENTATION ( #131, #175 ) ;
#139 = EDGE_CURVE ( 'NONE', #56, #78, #96, .T. ) ;
#140 = PRODUCT_DEFINITION ( 'UNKNOWN', '', #111, #17 ) ;
#141 = SECURITY_CLASSIFICATION_LEVEL ( 'unclassified' ) ;
#142 = MANIFOLD_SOLID_BREP ( 'Boss-Extrude1', #129 ) ;
#143 = VERTEX_POINT ( 'NONE', #35 ) ;
#144 = EDGE_LOOP ( 'NONE', ( #12, #3, #172, #154 ) ) ;
#145 = DIRECTION ( 'NONE',  ( -1.000000000000000000, 0.000000000000000000, 0.000000000000000000 ) ) ;
#146 = DIRECTION ( 'NONE',  ( -0.000000000000000000, -0.000000000000000000, -1.000000000000000000 ) ) ;
#147 = PERSON_AND_ORGANIZATION_ROLE ( 'classification_officer' ) ;
#148 = LOCAL_TIME ( 11, 17, 29.00000000000000000, #36 ) ;
#149 = ADVANCED_FACE ( 'NONE', ( #72 ), #82, .F. ) ;
#150 = AXIS2_PLACEMENT_3D ( 'NONE', #106, #98, #73 ) ;
#151 = PRODUCT_RELATED_PRODUCT_CATEGORY ( 'detail', '', ( #157 ) ) ;
#152 = DATE_AND_TIME ( #90, #10 ) ;
#153 = CALENDAR_DATE ( 2022, 6, 4 ) ;
#154 = ORIENTED_EDGE ( 'NONE', *, *, #132, .T. ) ;
#155 = AXIS2_PLACEMENT_3D ( 'NONE', #107, #161, #145 ) ;
#156 = CC_DESIGN_APPROVAL ( #34, ( #140 ) ) ;
#157 = PRODUCT ( 'Web Model 19841_19882', 'Web Model 19841_19882', '', ( #80 ) ) ;
#158 = FACE_OUTER_BOUND ( 'NONE', #46, .T. ) ;
#159 = CARTESIAN_POINT ( 'NONE',  ( 0.000000000000000000, 0.000000000000000000, 2.000000000000000000 ) ) ;
#160 = CARTESIAN_POINT ( 'NONE',  ( -25.00000000000000000, 0.000000000000000000, 2.000000000000000000 ) ) ;
#161 = DIRECTION ( 'NONE',  ( -0.000000000000000000, -0.000000000000000000, -1.000000000000000000 ) ) ;
#162 = CARTESIAN_POINT ( 'NONE',  ( 0.000000000000000000, 0.000000000000000000, 0.000000000000000000 ) ) ;
#163 = AXIS2_PLACEMENT_3D ( 'NONE', #105, #83, #32 ) ;
#164 = ADVANCED_FACE ( 'NONE', ( #133 ), #120, .T. ) ;
#165 = APPROVAL_STATUS ( 'not_yet_approved' ) ;
#166 = CIRCLE ( 'NONE', #150, 25.00000000000000000 ) ;
#167 = AXIS2_PLACEMENT_3D ( 'NONE', #100, #171, #27 ) ;
#168 = APPROVAL_STATUS ( 'not_yet_approved' ) ;
#169 = APPLICATION_CONTEXT ( 'configuration controlled 3d designs of mechanical parts and assemblies' ) ;
#170 = DATE_AND_TIME ( #109, #24 ) ;
#171 = DIRECTION ( 'NONE',  ( 0.000000000000000000, 0.000000000000000000, 1.000000000000000000 ) ) ;
#172 = ORIENTED_EDGE ( 'NONE', *, *, #91, .T. ) ;
#173 = CALENDAR_DATE ( 2022, 6, 4 ) ;
#174 = CC_DESIGN_PERSON_AND_ORGANIZATION_ASSIGNMENT ( #124, #37, ( #157 ) ) ;
#175 = ADVANCED_BREP_SHAPE_REPRESENTATION ( 'Web Model 19841_19882', ( #142, #167 ), #65 ) ;
ENDSEC;
END-ISO-10303-21;
