ISO-10303-21;
HEADER;
FILE_DESCRIPTION (( 'STEP AP203' ),
    '1' );
FILE_NAME ('Web Model 43772_43772.step',
    '2018-03-12T19:19:39',
    ( '' ),
    ( '' ),
    'SwSTEP 2.0',
    'SolidWorks 2016',
    '' );
FILE_SCHEMA (( 'CONFIG_CONTROL_DESIGN' ));
ENDSEC;

DATA;
#1 = EDGE_LOOP ( 'NONE', ( #168, #130, #136, #65 ) ) ;
#2 = EDGE_CURVE ( 'NONE', #145, #85, #126, .T. ) ;
#3 = DIRECTION ( 'NONE',  ( -1.000000000000000000, -0.0000000000000000000, -0.0000000000000000000 ) ) ;
#4 = LOCAL_TIME ( 15, 19, 39.00000000000000000, #7 ) ;
#5 = APPROVAL ( #81, 'UNSPECIFIED' ) ;
#6 = UNCERTAINTY_MEASURE_WITH_UNIT (LENGTH_MEASURE( 1.000000000000000100E-005 ), #70, 'distance_accuracy_value', 'NONE');
#7 = COORDINATED_UNIVERSAL_TIME_OFFSET ( 5, 0, .BEHIND. ) ;
#8 = EDGE_CURVE ( 'NONE', #21, #153, #42, .T. ) ;
#9 = VECTOR ( 'NONE', #67, 1000.000000000000000 ) ;
#10 = ORIENTED_EDGE ( 'NONE', *, *, #2, .F. ) ;
#11 = CALENDAR_DATE ( 2018, 12, 3 ) ;
#12 = CC_DESIGN_PERSON_AND_ORGANIZATION_ASSIGNMENT ( #227, #34, ( #215 ) ) ;
#13 = LINE ( 'NONE', #73, #192 ) ;
#14 = CC_DESIGN_APPROVAL ( #69, ( #50 ) ) ;
#15 = EDGE_CURVE ( 'NONE', #21, #121, #237, .T. ) ;
#16 = DIRECTION ( 'NONE',  ( -1.000000000000000000, -0.0000000000000000000, -0.0000000000000000000 ) ) ;
#17 = LOCAL_TIME ( 15, 19, 39.00000000000000000, #137 ) ;
#18 = EDGE_CURVE ( 'NONE', #195, #186, #41, .T. ) ;
#19 = EDGE_CURVE ( 'NONE', #121, #145, #72, .T. ) ;
#20 = ORIENTED_EDGE ( 'NONE', *, *, #112, .F. ) ;
#21 = VERTEX_POINT ( 'NONE', #220 ) ;
#22 = PERSON_AND_ORGANIZATION ( #177, #37 ) ;
#23 = DATE_AND_TIME ( #83, #228 ) ;
#24 = PLANE ( 'NONE',  #202 ) ;
#25 = CC_DESIGN_DATE_AND_TIME_ASSIGNMENT ( #154, #207, ( #50 ) ) ;
#26 = ADVANCED_FACE ( 'NONE', ( #165 ), #66, .F. ) ;
#27 = LINE ( 'NONE', #201, #33 ) ;
#28 = CARTESIAN_POINT ( 'NONE',  ( 3.000000000000000000, 6.350000000000000500, 6.349999999999997900 ) ) ;
#29 = EDGE_CURVE ( 'NONE', #85, #39, #160, .T. ) ;
#30 = DIRECTION ( 'NONE',  ( 0.0000000000000000000, -2.048885995248197400E-016, -1.000000000000000000 ) ) ;
#31 = FACE_OUTER_BOUND ( 'NONE', #1, .T. ) ;
#32 = CC_DESIGN_PERSON_AND_ORGANIZATION_ASSIGNMENT ( #82, #129, ( #215 ) ) ;
#33 = VECTOR ( 'NONE', #97, 1000.000000000000000 ) ;
#34 = PERSON_AND_ORGANIZATION_ROLE ( 'creator' ) ;
#35 = CLOSED_SHELL ( 'NONE', ( #52, #200, #71, #26, #226, #138 ) ) ;
#36 = APPROVAL_PERSON_ORGANIZATION ( #194, #69, #189 ) ;
#37 = ORGANIZATION ( 'UNSPECIFIED', 'UNSPECIFIED', '' ) ;
#38 = DIRECTION ( 'NONE',  ( 0.0000000000000000000, -0.0000000000000000000, 1.000000000000000000 ) ) ;
#39 = VERTEX_POINT ( 'NONE', #214 ) ;
#40 = VECTOR ( 'NONE', #149, 1000.000000000000000 ) ;
#41 = LINE ( 'NONE', #89, #90 ) ;
#42 = LINE ( 'NONE', #48, #152 ) ;
#43 = ORIENTED_EDGE ( 'NONE', *, *, #103, .T. ) ;
#44 = PRODUCT_DEFINITION ( 'UNKNOWN', '', #215, #184 ) ;
#45 = PERSON_AND_ORGANIZATION ( #177, #37 ) ;
#46 = CARTESIAN_POINT ( 'NONE',  ( 3.000000000000000000, 6.350000000000000500, 6.349999999999997900 ) ) ;
#47 = DIRECTION ( 'NONE',  ( 1.000000000000000000, 0.0000000000000000000, 0.0000000000000000000 ) ) ;
#48 = CARTESIAN_POINT ( 'NONE',  ( 3.000000000000000000, 6.350000000000000500, -6.349999999999999600 ) ) ;
#49 = FACE_OUTER_BOUND ( 'NONE', #179, .T. ) ;
#50 = SECURITY_CLASSIFICATION ( '', '', #142 ) ;
#51 = CARTESIAN_POINT ( 'NONE',  ( 3.000000000000000000, 6.350000000000000500, 6.349999999999997900 ) ) ;
#52 = ADVANCED_FACE ( 'NONE', ( #205 ), #24, .F. ) ;
#53 = COORDINATED_UNIVERSAL_TIME_OFFSET ( 5, 0, .BEHIND. ) ;
#54 = CARTESIAN_POINT ( 'NONE',  ( 3.000000000000000000, -6.349999999999997900, 6.350000000000000500 ) ) ;
#55 = ORIENTED_EDGE ( 'NONE', *, *, #8, .T. ) ;
#56 = PLANE ( 'NONE',  #159 ) ;
#57 = PERSON_AND_ORGANIZATION_ROLE ( 'creator' ) ;
#58 = EDGE_CURVE ( 'NONE', #85, #21, #13, .T. ) ;
#59 = CARTESIAN_POINT ( 'NONE',  ( 3.000000000000000000, -6.349999999999997900, 6.350000000000000500 ) ) ;
#60 = PLANE ( 'NONE',  #193 ) ;
#61 = ORIENTED_EDGE ( 'NONE', *, *, #29, .T. ) ;
#62 = AXIS2_PLACEMENT_3D ( 'NONE', #46, #101, #162 ) ;
#63 = MANIFOLD_SOLID_BREP ( 'Boss-Extrude1', #35 ) ;
#64 = LINE ( 'NONE', #225, #115 ) ;
#65 = ORIENTED_EDGE ( 'NONE', *, *, #15, .T. ) ;
#66 = PLANE ( 'NONE',  #62 ) ;
#67 = DIRECTION ( 'NONE',  ( 0.0000000000000000000, -1.000000000000000000, 2.048885995248197400E-016 ) ) ;
#68 = LOCAL_TIME ( 15, 19, 39.00000000000000000, #53 ) ;
#69 = APPROVAL ( #231, 'UNSPECIFIED' ) ;
#70 =( LENGTH_UNIT ( ) NAMED_UNIT ( * ) SI_UNIT ( .MILLI., .METRE. ) );
#71 = ADVANCED_FACE ( 'NONE', ( #198 ), #56, .F. ) ;
#72 = LINE ( 'NONE', #175, #9 ) ;
#73 = CARTESIAN_POINT ( 'NONE',  ( 3.000000000000000000, 6.350000000000000500, -6.349999999999999600 ) ) ;
#74 = EDGE_CURVE ( 'NONE', #145, #186, #64, .T. ) ;
#75 = ORIENTED_EDGE ( 'NONE', *, *, #29, .F. ) ;
#76 = CC_DESIGN_PERSON_AND_ORGANIZATION_ASSIGNMENT ( #22, #94, ( #50 ) ) ;
#77 = DIRECTION ( 'NONE',  ( 1.000000000000000000, 0.0000000000000000000, 0.0000000000000000000 ) ) ;
#78 = APPROVAL_ROLE ( '' ) ;
#79 = ORIENTED_EDGE ( 'NONE', *, *, #18, .T. ) ;
#80 = ORIENTED_EDGE ( 'NONE', *, *, #134, .T. ) ;
#81 = APPROVAL_STATUS ( 'not_yet_approved' ) ;
#82 = PERSON_AND_ORGANIZATION ( #177, #37 ) ;
#83 = CALENDAR_DATE ( 2018, 12, 3 ) ;
#84 = CARTESIAN_POINT ( 'NONE',  ( -3.000000000000000000, 0.0000000000000000000, 0.0000000000000000000 ) ) ;
#85 = VERTEX_POINT ( 'NONE', #140 ) ;
#86 = DIRECTION ( 'NONE',  ( 0.0000000000000000000, 0.0000000000000000000, -1.000000000000000000 ) ) ;
#87 = ORIENTED_EDGE ( 'NONE', *, *, #58, .F. ) ;
#88 = CC_DESIGN_SECURITY_CLASSIFICATION ( #50, ( #215 ) ) ;
#89 = CARTESIAN_POINT ( 'NONE',  ( -3.000000000000000000, 6.350000000000000500, 6.349999999999997900 ) ) ;
#90 = VECTOR ( 'NONE', #218, 1000.000000000000000 ) ;
#91 = ORIENTED_EDGE ( 'NONE', *, *, #74, .F. ) ;
#92 = LINE ( 'NONE', #171, #197 ) ;
#93 = VECTOR ( 'NONE', #164, 1000.000000000000000 ) ;
#94 = PERSON_AND_ORGANIZATION_ROLE ( 'classification_officer' ) ;
#95 = ORIENTED_EDGE ( 'NONE', *, *, #134, .F. ) ;
#96 = DIRECTION ( 'NONE',  ( 0.0000000000000000000, -2.048885995248197400E-016, 1.000000000000000000 ) ) ;
#97 = DIRECTION ( 'NONE',  ( -0.0000000000000000000, 1.000000000000000000, 2.048885995248197400E-016 ) ) ;
#98 = ORIENTED_EDGE ( 'NONE', *, *, #8, .F. ) ;
#99 = ORIENTED_EDGE ( 'NONE', *, *, #112, .T. ) ;
#100 = COORDINATED_UNIVERSAL_TIME_OFFSET ( 5, 0, .BEHIND. ) ;
#101 = DIRECTION ( 'NONE',  ( 0.0000000000000000000, -1.000000000000000000, 0.0000000000000000000 ) ) ;
#102 = VECTOR ( 'NONE', #161, 1000.000000000000000 ) ;
#103 = EDGE_CURVE ( 'NONE', #153, #195, #235, .T. ) ;
#104 = ORIENTED_EDGE ( 'NONE', *, *, #15, .F. ) ;
#105 = DIRECTION ( 'NONE',  ( 0.0000000000000000000, 1.000000000000000000, -2.048885995248197400E-016 ) ) ;
#106 = CC_DESIGN_APPROVAL ( #5, ( #215 ) ) ;
#107 = VECTOR ( 'NONE', #3, 1000.000000000000000 ) ;
#108 = APPLICATION_CONTEXT ( 'configuration controlled 3d designs of mechanical parts and assemblies' ) ;
#109 = APPLICATION_PROTOCOL_DEFINITION ( 'international standard', 'config_control_design', 1994, #108 ) ;
#110 = APPROVAL_STATUS ( 'not_yet_approved' ) ;
#111 = APPROVAL_PERSON_ORGANIZATION ( #45, #5, #78 ) ;
#112 = EDGE_CURVE ( 'NONE', #39, #153, #27, .T. ) ;
#113 = CARTESIAN_POINT ( 'NONE',  ( 0.0000000000000000000, 0.0000000000000000000, 0.0000000000000000000 ) ) ;
#114 = CARTESIAN_POINT ( 'NONE',  ( 3.000000000000000000, 6.350000000000000500, 6.349999999999997900 ) ) ;
#115 = VECTOR ( 'NONE', #16, 1000.000000000000000 ) ;
#116 = EDGE_LOOP ( 'NONE', ( #99, #98, #87, #61 ) ) ;
#117 = CARTESIAN_POINT ( 'NONE',  ( 3.000000000000000000, -6.349999999999997900, -6.350000000000002300 ) ) ;
#118 =( GEOMETRIC_REPRESENTATION_CONTEXT ( 3 ) GLOBAL_UNCERTAINTY_ASSIGNED_CONTEXT ( ( #6 ) ) GLOBAL_UNIT_ASSIGNED_CONTEXT ( ( #70, #219, #217 ) ) REPRESENTATION_CONTEXT ( 'NONE', 'WORKASPACE' ) );
#119 = DIRECTION ( 'NONE',  ( 0.0000000000000000000, 0.0000000000000000000, 1.000000000000000000 ) ) ;
#120 = ORIENTED_EDGE ( 'NONE', *, *, #103, .F. ) ;
#121 = VERTEX_POINT ( 'NONE', #114 ) ;
#122 = FACE_OUTER_BOUND ( 'NONE', #135, .T. ) ;
#123 = CARTESIAN_POINT ( 'NONE',  ( 3.000000000000000000, 0.0000000000000000000, 0.0000000000000000000 ) ) ;
#124 = PERSON_AND_ORGANIZATION ( #177, #37 ) ;
#125 = APPROVAL_ROLE ( '' ) ;
#126 = LINE ( 'NONE', #163, #156 ) ;
#127 = CARTESIAN_POINT ( 'NONE',  ( -3.000000000000000000, 6.350000000000000500, 6.349999999999997900 ) ) ;
#128 = APPROVAL_DATE_TIME ( #203, #69 ) ;
#129 = PERSON_AND_ORGANIZATION_ROLE ( 'design_supplier' ) ;
#130 = ORIENTED_EDGE ( 'NONE', *, *, #2, .T. ) ;
#131 = SHAPE_DEFINITION_REPRESENTATION ( #155, #199 ) ;
#132 = PRODUCT_RELATED_PRODUCT_CATEGORY ( 'detail', '', ( #196 ) ) ;
#133 = AXIS2_PLACEMENT_3D ( 'NONE', #84, #208, #86 ) ;
#134 = EDGE_CURVE ( 'NONE', #121, #195, #147, .T. ) ;
#135 = EDGE_LOOP ( 'NONE', ( #188, #120, #20, #174 ) ) ;
#136 = ORIENTED_EDGE ( 'NONE', *, *, #58, .T. ) ;
#137 = COORDINATED_UNIVERSAL_TIME_OFFSET ( 5, 0, .BEHIND. ) ;
#138 = ADVANCED_FACE ( 'NONE', ( #122 ), #170, .F. ) ;
#139 = APPROVAL_DATE_TIME ( #209, #185 ) ;
#140 = CARTESIAN_POINT ( 'NONE',  ( 3.000000000000000000, -6.349999999999997900, -6.350000000000002300 ) ) ;
#141 = DATE_TIME_ROLE ( 'creation_date' ) ;
#142 = SECURITY_CLASSIFICATION_LEVEL ( 'unclassified' ) ;
#143 = DIRECTION ( 'NONE',  ( -0.0000000000000000000, 1.000000000000000000, 0.0000000000000000000 ) ) ;
#144 = CARTESIAN_POINT ( 'NONE',  ( -3.000000000000000000, -6.349999999999997900, 6.350000000000000500 ) ) ;
#145 = VERTEX_POINT ( 'NONE', #59 ) ;
#146 = AXIS2_PLACEMENT_3D ( 'NONE', #54, #143, #38 ) ;
#147 = LINE ( 'NONE', #236, #102 ) ;
#148 = AXIS2_PLACEMENT_3D ( 'NONE', #113, #119, #47 ) ;
#149 = DIRECTION ( 'NONE',  ( -0.0000000000000000000, -0.0000000000000000000, 1.000000000000000000 ) ) ;
#150 = EDGE_LOOP ( 'NONE', ( #79, #91, #230, #80 ) ) ;
#151 = CALENDAR_DATE ( 2018, 12, 3 ) ;
#152 = VECTOR ( 'NONE', #157, 1000.000000000000000 ) ;
#153 = VERTEX_POINT ( 'NONE', #190 ) ;
#154 = DATE_AND_TIME ( #151, #4 ) ;
#155 = PRODUCT_DEFINITION_SHAPE ( 'NONE', 'NONE',  #44 ) ;
#156 = VECTOR ( 'NONE', #178, 1000.000000000000000 ) ;
#157 = DIRECTION ( 'NONE',  ( -1.000000000000000000, -0.0000000000000000000, -0.0000000000000000000 ) ) ;
#158 = EDGE_LOOP ( 'NONE', ( #43, #95, #104, #55 ) ) ;
#159 = AXIS2_PLACEMENT_3D ( 'NONE', #187, #96, #232 ) ;
#160 = LINE ( 'NONE', #117, #107 ) ;
#161 = DIRECTION ( 'NONE',  ( -1.000000000000000000, -0.0000000000000000000, -0.0000000000000000000 ) ) ;
#162 = DIRECTION ( 'NONE',  ( 0.0000000000000000000, -0.0000000000000000000, -1.000000000000000000 ) ) ;
#163 = CARTESIAN_POINT ( 'NONE',  ( 3.000000000000000000, -6.349999999999997900, 6.350000000000000500 ) ) ;
#164 = DIRECTION ( 'NONE',  ( -0.0000000000000000000, -0.0000000000000000000, 1.000000000000000000 ) ) ;
#165 = FACE_OUTER_BOUND ( 'NONE', #158, .T. ) ;
#166 = ORIENTED_EDGE ( 'NONE', *, *, #74, .T. ) ;
#167 = PERSON_AND_ORGANIZATION_ROLE ( 'design_owner' ) ;
#168 = ORIENTED_EDGE ( 'NONE', *, *, #19, .T. ) ;
#169 = APPROVAL_DATE_TIME ( #183, #5 ) ;
#170 = PLANE ( 'NONE',  #133 ) ;
#171 = CARTESIAN_POINT ( 'NONE',  ( -3.000000000000000000, -6.349999999999997900, 6.350000000000000500 ) ) ;
#172 = CARTESIAN_POINT ( 'NONE',  ( -3.000000000000000000, 6.350000000000000500, 6.349999999999997900 ) ) ;
#173 = ORIENTED_EDGE ( 'NONE', *, *, #216, .T. ) ;
#174 = ORIENTED_EDGE ( 'NONE', *, *, #216, .F. ) ;
#175 = CARTESIAN_POINT ( 'NONE',  ( 3.000000000000000000, 6.350000000000000500, 6.349999999999997900 ) ) ;
#176 = CALENDAR_DATE ( 2018, 12, 3 ) ;
#177 = PERSON ( 'UNSPECIFIED', 'UNSPECIFIED', 'UNSPECIFIED', ('UNSPECIFIED'), ('UNSPECIFIED'), ('UNSPECIFIED') ) ;
#178 = DIRECTION ( 'NONE',  ( 0.0000000000000000000, 0.0000000000000000000, -1.000000000000000000 ) ) ;
#179 = EDGE_LOOP ( 'NONE', ( #173, #75, #10, #166 ) ) ;
#180 = APPLICATION_PROTOCOL_DEFINITION ( 'international standard', 'config_control_design', 1994, #221 ) ;
#181 = CC_DESIGN_APPROVAL ( #185, ( #44 ) ) ;
#182 = DIRECTION ( 'NONE',  ( -0.0000000000000000000, 1.000000000000000000, 2.048885995248197400E-016 ) ) ;
#183 = DATE_AND_TIME ( #222, #17 ) ;
#184 = DESIGN_CONTEXT ( 'detailed design', #108, 'design' ) ;
#185 = APPROVAL ( #110, 'UNSPECIFIED' ) ;
#186 = VERTEX_POINT ( 'NONE', #144 ) ;
#187 = CARTESIAN_POINT ( 'NONE',  ( 3.000000000000000000, 6.350000000000000500, -6.349999999999999600 ) ) ;
#188 = ORIENTED_EDGE ( 'NONE', *, *, #18, .F. ) ;
#189 = APPROVAL_ROLE ( '' ) ;
#190 = CARTESIAN_POINT ( 'NONE',  ( -3.000000000000000000, 6.350000000000000500, -6.349999999999999600 ) ) ;
#191 = APPROVAL_PERSON_ORGANIZATION ( #213, #185, #125 ) ;
#192 = VECTOR ( 'NONE', #182, 1000.000000000000000 ) ;
#193 = AXIS2_PLACEMENT_3D ( 'NONE', #123, #77, #234 ) ;
#194 = PERSON_AND_ORGANIZATION ( #177, #37 ) ;
#195 = VERTEX_POINT ( 'NONE', #127 ) ;
#196 = PRODUCT ( 'Web Model 43772_43772', 'Web Model 43772_43772', '', ( #224 ) ) ;
#197 = VECTOR ( 'NONE', #223, 1000.000000000000000 ) ;
#198 = FACE_OUTER_BOUND ( 'NONE', #116, .T. ) ;
#199 = ADVANCED_BREP_SHAPE_REPRESENTATION ( 'Web Model 43772_43772', ( #63, #148 ), #118 ) ;
#200 = ADVANCED_FACE ( 'NONE', ( #49 ), #233, .F. ) ;
#201 = CARTESIAN_POINT ( 'NONE',  ( -3.000000000000000000, 6.350000000000000500, -6.349999999999999600 ) ) ;
#202 = AXIS2_PLACEMENT_3D ( 'NONE', #28, #30, #105 ) ;
#203 = DATE_AND_TIME ( #11, #212 ) ;
#204 = PERSON_AND_ORGANIZATION ( #177, #37 ) ;
#205 = FACE_OUTER_BOUND ( 'NONE', #150, .T. ) ;
#206 = CC_DESIGN_PERSON_AND_ORGANIZATION_ASSIGNMENT ( #204, #57, ( #44 ) ) ;
#207 = DATE_TIME_ROLE ( 'classification_date' ) ;
#208 = DIRECTION ( 'NONE',  ( 1.000000000000000000, 0.0000000000000000000, 0.0000000000000000000 ) ) ;
#209 = DATE_AND_TIME ( #176, #68 ) ;
#210 = CC_DESIGN_PERSON_AND_ORGANIZATION_ASSIGNMENT ( #124, #167, ( #196 ) ) ;
#211 = COORDINATED_UNIVERSAL_TIME_OFFSET ( 5, 0, .BEHIND. ) ;
#212 = LOCAL_TIME ( 15, 19, 39.00000000000000000, #100 ) ;
#213 = PERSON_AND_ORGANIZATION ( #177, #37 ) ;
#214 = CARTESIAN_POINT ( 'NONE',  ( -3.000000000000000000, -6.349999999999997900, -6.350000000000002300 ) ) ;
#215 = PRODUCT_DEFINITION_FORMATION_WITH_SPECIFIED_SOURCE ( 'ANY', '', #196, .NOT_KNOWN. ) ;
#216 = EDGE_CURVE ( 'NONE', #186, #39, #92, .T. ) ;
#217 =( NAMED_UNIT ( * ) SI_UNIT ( $, .STERADIAN. ) SOLID_ANGLE_UNIT ( ) );
#218 = DIRECTION ( 'NONE',  ( 0.0000000000000000000, -1.000000000000000000, 2.048885995248197400E-016 ) ) ;
#219 =( NAMED_UNIT ( * ) PLANE_ANGLE_UNIT ( ) SI_UNIT ( $, .RADIAN. ) );
#220 = CARTESIAN_POINT ( 'NONE',  ( 3.000000000000000000, 6.350000000000000500, -6.349999999999999600 ) ) ;
#221 = APPLICATION_CONTEXT ( 'configuration controlled 3d designs of mechanical parts and assemblies' ) ;
#222 = CALENDAR_DATE ( 2018, 12, 3 ) ;
#223 = DIRECTION ( 'NONE',  ( 0.0000000000000000000, 0.0000000000000000000, -1.000000000000000000 ) ) ;
#224 = MECHANICAL_CONTEXT ( 'NONE', #221, 'mechanical' ) ;
#225 = CARTESIAN_POINT ( 'NONE',  ( 3.000000000000000000, -6.349999999999997900, 6.350000000000000500 ) ) ;
#226 = ADVANCED_FACE ( 'NONE', ( #31 ), #60, .T. ) ;
#227 = PERSON_AND_ORGANIZATION ( #177, #37 ) ;
#228 = LOCAL_TIME ( 15, 19, 39.00000000000000000, #211 ) ;
#229 = CC_DESIGN_DATE_AND_TIME_ASSIGNMENT ( #23, #141, ( #44 ) ) ;
#230 = ORIENTED_EDGE ( 'NONE', *, *, #19, .F. ) ;
#231 = APPROVAL_STATUS ( 'not_yet_approved' ) ;
#232 = DIRECTION ( 'NONE',  ( 0.0000000000000000000, -1.000000000000000000, -2.048885995248197400E-016 ) ) ;
#233 = PLANE ( 'NONE',  #146 ) ;
#234 = DIRECTION ( 'NONE',  ( 0.0000000000000000000, 0.0000000000000000000, -1.000000000000000000 ) ) ;
#235 = LINE ( 'NONE', #172, #40 ) ;
#236 = CARTESIAN_POINT ( 'NONE',  ( 3.000000000000000000, 6.350000000000000500, 6.349999999999997900 ) ) ;
#237 = LINE ( 'NONE', #51, #93 ) ;
ENDSEC;
END-ISO-10303-21;
