ISO-10303-21;
HEADER;
FILE_DESCRIPTION (( 'STEP AP203' ),
    '1' );
FILE_NAME ('Web Model 64397MX_43752.step',
    '2017-10-30T13:01:26',
    ( '' ),
    ( '' ),
    'SwSTEP 2.0',
    'SolidWorks 2016',
    '' );
FILE_SCHEMA (( 'CONFIG_CONTROL_DESIGN' ));
ENDSEC;

DATA;
#1 = LINE ( 'NONE', #199, #192 ) ;
#2 = VERTEX_POINT ( 'NONE', #63 ) ;
#3 = AXIS2_PLACEMENT_3D ( 'NONE', #47, #50, #89 ) ;
#4 = VECTOR ( 'NONE', #191, 1000.000000000000000 ) ;
#5 = ORIENTED_EDGE ( 'NONE', *, *, #72, .T. ) ;
#6 = VECTOR ( 'NONE', #148, 1000.000000000000000 ) ;
#7 = ORIENTED_EDGE ( 'NONE', *, *, #187, .T. ) ;
#8 = APPROVAL_STATUS ( 'not_yet_approved' ) ;
#9 = VERTEX_POINT ( 'NONE', #189 ) ;
#10 = VECTOR ( 'NONE', #136, 1000.000000000000000 ) ;
#11 = PLANE ( 'NONE',  #143 ) ;
#12 = CALENDAR_DATE ( 2017, 30, 10 ) ;
#13 = DIRECTION ( 'NONE',  ( -1.365923996832131600E-016, 1.000000000000000000, 0.0000000000000000000 ) ) ;
#14 = DIRECTION ( 'NONE',  ( 0.0000000000000000000, 1.000000000000000000, 0.0000000000000000000 ) ) ;
#15 = VECTOR ( 'NONE', #151, 1000.000000000000000 ) ;
#16 = AXIS2_PLACEMENT_3D ( 'NONE', #43, #13, #118 ) ;
#17 = ORIENTED_EDGE ( 'NONE', *, *, #121, .F. ) ;
#18 = EDGE_CURVE ( 'NONE', #100, #9, #219, .T. ) ;
#19 = CALENDAR_DATE ( 2017, 30, 10 ) ;
#20 = FACE_OUTER_BOUND ( 'NONE', #64, .T. ) ;
#21 = ORIENTED_EDGE ( 'NONE', *, *, #57, .F. ) ;
#22 = LOCAL_TIME ( 9, 1, 26.00000000000000000, #221 ) ;
#23 = CARTESIAN_POINT ( 'NONE',  ( 6.349999999999998800, 6.350000000000000500, -3.000000000000000000 ) ) ;
#24 = LINE ( 'NONE', #115, #211 ) ;
#25 = AXIS2_PLACEMENT_3D ( 'NONE', #228, #201, #168 ) ;
#26 = PERSON_AND_ORGANIZATION ( #27, #166 ) ;
#27 = PERSON ( 'UNSPECIFIED', 'UNSPECIFIED', 'UNSPECIFIED', ('UNSPECIFIED'), ('UNSPECIFIED'), ('UNSPECIFIED') ) ;
#28 = DIRECTION ( 'NONE',  ( 1.000000000000000000, 1.365923996832131600E-016, -0.0000000000000000000 ) ) ;
#29 = APPROVAL_STATUS ( 'not_yet_approved' ) ;
#30 = PLANE ( 'NONE',  #3 ) ;
#31 = PERSON_AND_ORGANIZATION_ROLE ( 'design_supplier' ) ;
#32 = ORIENTED_EDGE ( 'NONE', *, *, #74, .F. ) ;
#33 = PERSON_AND_ORGANIZATION ( #27, #166 ) ;
#34 = ORIENTED_EDGE ( 'NONE', *, *, #18, .T. ) ;
#35 = CALENDAR_DATE ( 2017, 30, 10 ) ;
#36 = VERTEX_POINT ( 'NONE', #103 ) ;
#37 = PERSON_AND_ORGANIZATION ( #27, #166 ) ;
#38 = CARTESIAN_POINT ( 'NONE',  ( -6.350000000000000500, -6.350000000000000500, 3.000000000000000000 ) ) ;
#39 = EDGE_CURVE ( 'NONE', #159, #137, #153, .T. ) ;
#40 = VERTEX_POINT ( 'NONE', #61 ) ;
#41 = APPROVAL_PERSON_ORGANIZATION ( #122, #110, #86 ) ;
#42 = DIRECTION ( 'NONE',  ( 0.0000000000000000000, 0.0000000000000000000, 1.000000000000000000 ) ) ;
#43 = CARTESIAN_POINT ( 'NONE',  ( 6.349999999999998800, -6.349999999999998800, 3.000000000000000000 ) ) ;
#44 = EDGE_LOOP ( 'NONE', ( #162, #109, #59, #84 ) ) ;
#45 = CARTESIAN_POINT ( 'NONE',  ( 6.349999999999998800, -6.349999999999998800, 3.000000000000000000 ) ) ;
#46 = PRODUCT_DEFINITION_SHAPE ( 'NONE', 'NONE',  #99 ) ;
#47 = CARTESIAN_POINT ( 'NONE',  ( 0.0000000000000000000, 0.0000000000000000000, 3.000000000000000000 ) ) ;
#48 = EDGE_CURVE ( 'NONE', #159, #77, #126, .T. ) ;
#49 =( NAMED_UNIT ( * ) PLANE_ANGLE_UNIT ( ) SI_UNIT ( $, .RADIAN. ) );
#50 = DIRECTION ( 'NONE',  ( 0.0000000000000000000, -0.0000000000000000000, 1.000000000000000000 ) ) ;
#51 = CARTESIAN_POINT ( 'NONE',  ( 6.349999999999998800, -6.349999999999998800, 3.000000000000000000 ) ) ;
#52 = CLOSED_SHELL ( 'NONE', ( #150, #195, #227, #116, #87, #83 ) ) ;
#53 = CARTESIAN_POINT ( 'NONE',  ( 0.0000000000000000000, 0.0000000000000000000, -3.000000000000000000 ) ) ;
#54 = CC_DESIGN_PERSON_AND_ORGANIZATION_ASSIGNMENT ( #180, #217, ( #170 ) ) ;
#55 = SECURITY_CLASSIFICATION_LEVEL ( 'unclassified' ) ;
#56 = COORDINATED_UNIVERSAL_TIME_OFFSET ( 5, 0, .BEHIND. ) ;
#57 = EDGE_CURVE ( 'NONE', #137, #36, #207, .T. ) ;
#58 = FACE_OUTER_BOUND ( 'NONE', #44, .T. ) ;
#59 = ORIENTED_EDGE ( 'NONE', *, *, #48, .F. ) ;
#60 = ORIENTED_EDGE ( 'NONE', *, *, #200, .T. ) ;
#61 = CARTESIAN_POINT ( 'NONE',  ( 6.349999999999998800, -6.349999999999998800, -3.000000000000000000 ) ) ;
#62 = EDGE_CURVE ( 'NONE', #36, #40, #158, .T. ) ;
#63 = CARTESIAN_POINT ( 'NONE',  ( 6.349999999999998800, -6.349999999999998800, 3.000000000000000000 ) ) ;
#64 = EDGE_LOOP ( 'NONE', ( #5, #183, #127, #34 ) ) ;
#65 = CARTESIAN_POINT ( 'NONE',  ( -6.350000000000000500, -6.350000000000000500, 3.000000000000000000 ) ) ;
#66 = DATE_AND_TIME ( #178, #204 ) ;
#67 = CARTESIAN_POINT ( 'NONE',  ( 6.349999999999998800, 6.350000000000000500, 3.000000000000000000 ) ) ;
#68 = APPLICATION_CONTEXT ( 'configuration controlled 3d designs of mechanical parts and assemblies' ) ;
#69 = CARTESIAN_POINT ( 'NONE',  ( 6.349999999999998800, 6.350000000000000500, 3.000000000000000000 ) ) ;
#70 = VECTOR ( 'NONE', #14, 1000.000000000000000 ) ;
#71 =( LENGTH_UNIT ( ) NAMED_UNIT ( * ) SI_UNIT ( .MILLI., .METRE. ) );
#72 = EDGE_CURVE ( 'NONE', #9, #137, #213, .T. ) ;
#73 = FACE_OUTER_BOUND ( 'NONE', #206, .T. ) ;
#74 = EDGE_CURVE ( 'NONE', #40, #9, #131, .T. ) ;
#75 = DATE_AND_TIME ( #19, #138 ) ;
#76 = SECURITY_CLASSIFICATION ( '', '', #55 ) ;
#77 = VERTEX_POINT ( 'NONE', #202 ) ;
#78 = APPROVAL_DATE_TIME ( #75, #133 ) ;
#79 = LINE ( 'NONE', #65, #6 ) ;
#80 = CC_DESIGN_APPROVAL ( #110, ( #99 ) ) ;
#81 = COORDINATED_UNIVERSAL_TIME_OFFSET ( 5, 0, .BEHIND. ) ;
#82 = UNCERTAINTY_MEASURE_WITH_UNIT (LENGTH_MEASURE( 1.000000000000000100E-005 ), #71, 'distance_accuracy_value', 'NONE');
#83 = ADVANCED_FACE ( 'NONE', ( #73 ), #124, .F. ) ;
#84 = ORIENTED_EDGE ( 'NONE', *, *, #39, .T. ) ;
#85 = DATE_AND_TIME ( #184, #142 ) ;
#86 = APPROVAL_ROLE ( '' ) ;
#87 = ADVANCED_FACE ( 'NONE', ( #113 ), #30, .T. ) ;
#88 = APPROVAL_STATUS ( 'not_yet_approved' ) ;
#89 = DIRECTION ( 'NONE',  ( 1.000000000000000000, 0.0000000000000000000, -0.0000000000000000000 ) ) ;
#90 = EDGE_CURVE ( 'NONE', #2, #100, #157, .T. ) ;
#91 = APPLICATION_PROTOCOL_DEFINITION ( 'international standard', 'config_control_design', 1994, #68 ) ;
#92 =( NAMED_UNIT ( * ) SI_UNIT ( $, .STERADIAN. ) SOLID_ANGLE_UNIT ( ) );
#93 = ORIENTED_EDGE ( 'NONE', *, *, #90, .T. ) ;
#94 = PERSON_AND_ORGANIZATION_ROLE ( 'creator' ) ;
#95 = ORIENTED_EDGE ( 'NONE', *, *, #18, .F. ) ;
#96 = VECTOR ( 'NONE', #212, 1000.000000000000000 ) ;
#97 = ORIENTED_EDGE ( 'NONE', *, *, #62, .T. ) ;
#98 = CARTESIAN_POINT ( 'NONE',  ( -6.350000000000000500, -6.350000000000000500, -3.000000000000000000 ) ) ;
#99 = PRODUCT_DEFINITION ( 'UNKNOWN', '', #117, #163 ) ;
#100 = VERTEX_POINT ( 'NONE', #67 ) ;
#101 = CARTESIAN_POINT ( 'NONE',  ( 6.349999999999998800, 6.350000000000000500, 3.000000000000000000 ) ) ;
#102 = SHAPE_DEFINITION_REPRESENTATION ( #46, #152 ) ;
#103 = CARTESIAN_POINT ( 'NONE',  ( -6.350000000000000500, -6.350000000000000500, -3.000000000000000000 ) ) ;
#104 = EDGE_LOOP ( 'NONE', ( #97, #141, #17, #7 ) ) ;
#105 = MECHANICAL_CONTEXT ( 'NONE', #68, 'mechanical' ) ;
#106 = EDGE_LOOP ( 'NONE', ( #134, #95, #196, #155 ) ) ;
#107 = APPROVAL_ROLE ( '' ) ;
#108 = APPLICATION_CONTEXT ( 'configuration controlled 3d designs of mechanical parts and assemblies' ) ;
#109 = ORIENTED_EDGE ( 'NONE', *, *, #187, .F. ) ;
#110 = APPROVAL ( #88, 'UNSPECIFIED' ) ;
#111 = PRODUCT_RELATED_PRODUCT_CATEGORY ( 'detail', '', ( #170 ) ) ;
#112 = CC_DESIGN_SECURITY_CLASSIFICATION ( #76, ( #117 ) ) ;
#113 = FACE_OUTER_BOUND ( 'NONE', #188, .T. ) ;
#114 = AXIS2_PLACEMENT_3D ( 'NONE', #164, #214, #181 ) ;
#115 = CARTESIAN_POINT ( 'NONE',  ( 6.349999999999998800, -6.349999999999998800, 3.000000000000000000 ) ) ;
#116 = ADVANCED_FACE ( 'NONE', ( #20 ), #146, .F. ) ;
#117 = PRODUCT_DEFINITION_FORMATION_WITH_SPECIFIED_SOURCE ( 'ANY', '', #170, .NOT_KNOWN. ) ;
#118 = DIRECTION ( 'NONE',  ( -1.000000000000000000, -1.365923996832131600E-016, 0.0000000000000000000 ) ) ;
#119 = DIRECTION ( 'NONE',  ( -1.000000000000000000, -1.365923996832131600E-016, 0.0000000000000000000 ) ) ;
#120 = DIRECTION ( 'NONE',  ( 1.000000000000000000, 0.0000000000000000000, -0.0000000000000000000 ) ) ;
#121 = EDGE_CURVE ( 'NONE', #77, #2, #24, .T. ) ;
#122 = PERSON_AND_ORGANIZATION ( #27, #166 ) ;
#123 = PERSON_AND_ORGANIZATION_ROLE ( 'creator' ) ;
#124 = PLANE ( 'NONE',  #220 ) ;
#125 = MANIFOLD_SOLID_BREP ( 'Boss-Extrude1', #52 ) ;
#126 = LINE ( 'NONE', #38, #186 ) ;
#127 = ORIENTED_EDGE ( 'NONE', *, *, #200, .F. ) ;
#128 = CC_DESIGN_PERSON_AND_ORGANIZATION_ASSIGNMENT ( #209, #236, ( #76 ) ) ;
#129 = LOCAL_TIME ( 9, 1, 26.00000000000000000, #56 ) ;
#130 = DATE_TIME_ROLE ( 'classification_date' ) ;
#131 = LINE ( 'NONE', #233, #15 ) ;
#132 = CC_DESIGN_PERSON_AND_ORGANIZATION_ASSIGNMENT ( #26, #94, ( #117 ) ) ;
#133 = APPROVAL ( #8, 'UNSPECIFIED' ) ;
#134 = ORIENTED_EDGE ( 'NONE', *, *, #74, .T. ) ;
#135 = DATE_AND_TIME ( #35, #129 ) ;
#136 = DIRECTION ( 'NONE',  ( -1.000000000000000000, -1.365923996832131600E-016, 0.0000000000000000000 ) ) ;
#137 = VERTEX_POINT ( 'NONE', #198 ) ;
#138 = LOCAL_TIME ( 9, 1, 26.00000000000000000, #81 ) ;
#139 = DIRECTION ( 'NONE',  ( -0.0000000000000000000, -0.0000000000000000000, -1.000000000000000000 ) ) ;
#140 = LINE ( 'NONE', #45, #234 ) ;
#141 = ORIENTED_EDGE ( 'NONE', *, *, #205, .F. ) ;
#142 = LOCAL_TIME ( 9, 1, 26.00000000000000000, #173 ) ;
#143 = AXIS2_PLACEMENT_3D ( 'NONE', #51, #232, #42 ) ;
#144 = PLANE ( 'NONE',  #25 ) ;
#145 = APPROVAL_PERSON_ORGANIZATION ( #237, #133, #107 ) ;
#146 = PLANE ( 'NONE',  #197 ) ;
#147 = CC_DESIGN_PERSON_AND_ORGANIZATION_ASSIGNMENT ( #160, #31, ( #117 ) ) ;
#148 = DIRECTION ( 'NONE',  ( -0.0000000000000000000, -0.0000000000000000000, -1.000000000000000000 ) ) ;
#149 = DIRECTION ( 'NONE',  ( 1.000000000000000000, 1.365923996832131600E-016, 0.0000000000000000000 ) ) ;
#150 = ADVANCED_FACE ( 'NONE', ( #58 ), #144, .F. ) ;
#151 = DIRECTION ( 'NONE',  ( 0.0000000000000000000, 1.000000000000000000, 0.0000000000000000000 ) ) ;
#152 = ADVANCED_BREP_SHAPE_REPRESENTATION ( 'Web Model 64397MX_43752', ( #125, #114 ), #210 ) ;
#153 = LINE ( 'NONE', #225, #96 ) ;
#154 = ORIENTED_EDGE ( 'NONE', *, *, #72, .F. ) ;
#155 = ORIENTED_EDGE ( 'NONE', *, *, #205, .T. ) ;
#156 = APPROVAL_DATE_TIME ( #215, #229 ) ;
#157 = LINE ( 'NONE', #231, #70 ) ;
#158 = LINE ( 'NONE', #224, #4 ) ;
#159 = VERTEX_POINT ( 'NONE', #169 ) ;
#160 = PERSON_AND_ORGANIZATION ( #27, #166 ) ;
#161 = CC_DESIGN_DATE_AND_TIME_ASSIGNMENT ( #85, #130, ( #76 ) ) ;
#162 = ORIENTED_EDGE ( 'NONE', *, *, #57, .T. ) ;
#163 = DESIGN_CONTEXT ( 'detailed design', #108, 'design' ) ;
#164 = CARTESIAN_POINT ( 'NONE',  ( 0.0000000000000000000, 0.0000000000000000000, 0.0000000000000000000 ) ) ;
#165 = ORIENTED_EDGE ( 'NONE', *, *, #62, .F. ) ;
#166 = ORGANIZATION ( 'UNSPECIFIED', 'UNSPECIFIED', '' ) ;
#167 = PLANE ( 'NONE',  #16 ) ;
#168 = DIRECTION ( 'NONE',  ( 0.0000000000000000000, 0.0000000000000000000, -1.000000000000000000 ) ) ;
#169 = CARTESIAN_POINT ( 'NONE',  ( -6.350000000000000500, 6.349999999999998800, 3.000000000000000000 ) ) ;
#170 = PRODUCT ( 'Web Model 64397MX_43752', 'Web Model 64397MX_43752', '', ( #105 ) ) ;
#171 = CC_DESIGN_APPROVAL ( #133, ( #117 ) ) ;
#172 = CC_DESIGN_APPROVAL ( #229, ( #76 ) ) ;
#173 = COORDINATED_UNIVERSAL_TIME_OFFSET ( 5, 0, .BEHIND. ) ;
#174 = VECTOR ( 'NONE', #139, 1000.000000000000000 ) ;
#175 = ORIENTED_EDGE ( 'NONE', *, *, #121, .T. ) ;
#176 = FACE_OUTER_BOUND ( 'NONE', #106, .T. ) ;
#177 = DIRECTION ( 'NONE',  ( -0.0000000000000000000, -1.000000000000000000, -0.0000000000000000000 ) ) ;
#178 = CALENDAR_DATE ( 2017, 30, 10 ) ;
#179 = VECTOR ( 'NONE', #177, 1000.000000000000000 ) ;
#180 = PERSON_AND_ORGANIZATION ( #27, #166 ) ;
#181 = DIRECTION ( 'NONE',  ( 1.000000000000000000, 0.0000000000000000000, 0.0000000000000000000 ) ) ;
#182 = DIRECTION ( 'NONE',  ( 0.0000000000000000000, -0.0000000000000000000, 1.000000000000000000 ) ) ;
#183 = ORIENTED_EDGE ( 'NONE', *, *, #39, .F. ) ;
#184 = CALENDAR_DATE ( 2017, 30, 10 ) ;
#185 = APPROVAL_ROLE ( '' ) ;
#186 = VECTOR ( 'NONE', #208, 1000.000000000000000 ) ;
#187 = EDGE_CURVE ( 'NONE', #77, #36, #79, .T. ) ;
#188 = EDGE_LOOP ( 'NONE', ( #193, #175, #93, #60 ) ) ;
#189 = CARTESIAN_POINT ( 'NONE',  ( 6.349999999999998800, 6.350000000000000500, -3.000000000000000000 ) ) ;
#190 = APPROVAL_DATE_TIME ( #66, #110 ) ;
#191 = DIRECTION ( 'NONE',  ( 1.000000000000000000, 1.365923996832131600E-016, -0.0000000000000000000 ) ) ;
#192 = VECTOR ( 'NONE', #119, 1000.000000000000000 ) ;
#193 = ORIENTED_EDGE ( 'NONE', *, *, #48, .T. ) ;
#194 = APPLICATION_PROTOCOL_DEFINITION ( 'international standard', 'config_control_design', 1994, #108 ) ;
#195 = ADVANCED_FACE ( 'NONE', ( #203 ), #167, .F. ) ;
#196 = ORIENTED_EDGE ( 'NONE', *, *, #90, .F. ) ;
#197 = AXIS2_PLACEMENT_3D ( 'NONE', #69, #218, #149 ) ;
#198 = CARTESIAN_POINT ( 'NONE',  ( -6.350000000000000500, 6.349999999999998800, -3.000000000000000000 ) ) ;
#199 = CARTESIAN_POINT ( 'NONE',  ( 6.349999999999998800, 6.350000000000000500, 3.000000000000000000 ) ) ;
#200 = EDGE_CURVE ( 'NONE', #100, #159, #1, .T. ) ;
#201 = DIRECTION ( 'NONE',  ( 1.000000000000000000, 0.0000000000000000000, 0.0000000000000000000 ) ) ;
#202 = CARTESIAN_POINT ( 'NONE',  ( -6.350000000000000500, -6.350000000000000500, 3.000000000000000000 ) ) ;
#203 = FACE_OUTER_BOUND ( 'NONE', #104, .T. ) ;
#204 = LOCAL_TIME ( 9, 1, 26.00000000000000000, #235 ) ;
#205 = EDGE_CURVE ( 'NONE', #2, #40, #140, .T. ) ;
#206 = EDGE_LOOP ( 'NONE', ( #21, #154, #32, #165 ) ) ;
#207 = LINE ( 'NONE', #98, #179 ) ;
#208 = DIRECTION ( 'NONE',  ( -0.0000000000000000000, -1.000000000000000000, -0.0000000000000000000 ) ) ;
#209 = PERSON_AND_ORGANIZATION ( #27, #166 ) ;
#210 =( GEOMETRIC_REPRESENTATION_CONTEXT ( 3 ) GLOBAL_UNCERTAINTY_ASSIGNED_CONTEXT ( ( #82 ) ) GLOBAL_UNIT_ASSIGNED_CONTEXT ( ( #71, #49, #92 ) ) REPRESENTATION_CONTEXT ( 'NONE', 'WORKASPACE' ) );
#211 = VECTOR ( 'NONE', #28, 1000.000000000000000 ) ;
#212 = DIRECTION ( 'NONE',  ( -0.0000000000000000000, -0.0000000000000000000, -1.000000000000000000 ) ) ;
#213 = LINE ( 'NONE', #23, #10 ) ;
#214 = DIRECTION ( 'NONE',  ( 0.0000000000000000000, 0.0000000000000000000, 1.000000000000000000 ) ) ;
#215 = DATE_AND_TIME ( #12, #22 ) ;
#216 = DATE_TIME_ROLE ( 'creation_date' ) ;
#217 = PERSON_AND_ORGANIZATION_ROLE ( 'design_owner' ) ;
#218 = DIRECTION ( 'NONE',  ( 1.365923996832131600E-016, -1.000000000000000000, 0.0000000000000000000 ) ) ;
#219 = LINE ( 'NONE', #101, #174 ) ;
#220 = AXIS2_PLACEMENT_3D ( 'NONE', #53, #182, #120 ) ;
#221 = COORDINATED_UNIVERSAL_TIME_OFFSET ( 5, 0, .BEHIND. ) ;
#222 = APPROVAL_PERSON_ORGANIZATION ( #33, #229, #185 ) ;
#223 = CC_DESIGN_PERSON_AND_ORGANIZATION_ASSIGNMENT ( #37, #123, ( #99 ) ) ;
#224 = CARTESIAN_POINT ( 'NONE',  ( 6.349999999999998800, -6.349999999999998800, -3.000000000000000000 ) ) ;
#225 = CARTESIAN_POINT ( 'NONE',  ( -6.350000000000000500, 6.349999999999998800, 3.000000000000000000 ) ) ;
#226 = CC_DESIGN_DATE_AND_TIME_ASSIGNMENT ( #135, #216, ( #99 ) ) ;
#227 = ADVANCED_FACE ( 'NONE', ( #176 ), #11, .F. ) ;
#228 = CARTESIAN_POINT ( 'NONE',  ( -6.350000000000000500, -6.350000000000000500, 3.000000000000000000 ) ) ;
#229 = APPROVAL ( #29, 'UNSPECIFIED' ) ;
#230 = DIRECTION ( 'NONE',  ( -0.0000000000000000000, -0.0000000000000000000, -1.000000000000000000 ) ) ;
#231 = CARTESIAN_POINT ( 'NONE',  ( 6.349999999999998800, -6.349999999999998800, 3.000000000000000000 ) ) ;
#232 = DIRECTION ( 'NONE',  ( -1.000000000000000000, 0.0000000000000000000, 0.0000000000000000000 ) ) ;
#233 = CARTESIAN_POINT ( 'NONE',  ( 6.349999999999998800, -6.349999999999998800, -3.000000000000000000 ) ) ;
#234 = VECTOR ( 'NONE', #230, 1000.000000000000000 ) ;
#235 = COORDINATED_UNIVERSAL_TIME_OFFSET ( 5, 0, .BEHIND. ) ;
#236 = PERSON_AND_ORGANIZATION_ROLE ( 'classification_officer' ) ;
#237 = PERSON_AND_ORGANIZATION ( #27, #166 ) ;
ENDSEC;
END-ISO-10303-21;
