ISO-10303-21;
HEADER;
FILE_DESCRIPTION (( 'STEP AP203' ),
    '1' );
FILE_NAME ('Web Model 39292_11930.step',
    '2021-03-30T17:03:16',
    ( '' ),
    ( '' ),
    'SwSTEP 2.0',
    'SolidWorks 2018',
    '' );
FILE_SCHEMA (( 'CONFIG_CONTROL_DESIGN' ));
ENDSEC;

DATA;
#1 = VERTEX_POINT ( 'NONE', #18 ) ;
#2 = AXIS2_PLACEMENT_3D ( 'NONE', #115, #29, #128 ) ;
#3 = PERSON_AND_ORGANIZATION ( #147, #33 ) ;
#4 = CC_DESIGN_DATE_AND_TIME_ASSIGNMENT ( #6, #67, ( #30 ) ) ;
#5 = FACE_OUTER_BOUND ( 'NONE', #10, .T. ) ;
#6 = DATE_AND_TIME ( #45, #175 ) ;
#7 = PLANE ( 'NONE',  #149 ) ;
#8 = EDGE_CURVE ( 'NONE', #114, #1, #124, .T. ) ;
#9 = APPROVAL_PERSON_ORGANIZATION ( #141, #162, #109 ) ;
#10 = EDGE_LOOP ( 'NONE', ( #129, #76 ) ) ;
#11 = DIRECTION ( 'NONE',  ( 1.000000000000000000, 0.000000000000000000, -0.000000000000000000 ) ) ;
#12 = PERSON_AND_ORGANIZATION ( #147, #33 ) ;
#13 = CYLINDRICAL_SURFACE ( 'NONE', #72, 50.00000000000000000 ) ;
#14 = DATE_AND_TIME ( #169, #86 ) ;
#15 = EDGE_CURVE ( 'NONE', #118, #57, #166, .T. ) ;
#16 = ADVANCED_FACE ( 'NONE', ( #155 ), #13, .T. ) ;
#17 = CARTESIAN_POINT ( 'NONE',  ( -50.00000000000000000, 0.000000000000000000, 4.000000000000000000 ) ) ;
#18 = CARTESIAN_POINT ( 'NONE',  ( -50.00000000000000000, 0.000000000000000000, 4.000000000000000000 ) ) ;
#19 = APPROVAL_ROLE ( '' ) ;
#20 = LOCAL_TIME ( 13, 3, 16.00000000000000000, #125 ) ;
#21 = EDGE_LOOP ( 'NONE', ( #51, #87, #43, #49 ) ) ;
#22 = AXIS2_PLACEMENT_3D ( 'NONE', #82, #84, #97 ) ;
#23 = APPLICATION_CONTEXT ( 'configuration controlled 3d designs of mechanical parts and assemblies' ) ;
#24 = AXIS2_PLACEMENT_3D ( 'NONE', #93, #92, #62 ) ;
#25 = CC_DESIGN_APPROVAL ( #167, ( #111 ) ) ;
#26 = APPROVAL ( #158, 'UNSPECIFIED' ) ;
#27 = ADVANCED_FACE ( 'NONE', ( #54 ), #7, .F. ) ;
#28 = APPROVAL_DATE_TIME ( #145, #162 ) ;
#29 = DIRECTION ( 'NONE',  ( 0.000000000000000000, 0.000000000000000000, 1.000000000000000000 ) ) ;
#30 = SECURITY_CLASSIFICATION ( '', '', #66 ) ;
#31 = CARTESIAN_POINT ( 'NONE',  ( 50.00000000000000000, 6.123233995736766085E-15, 4.000000000000000000 ) ) ;
#32 = CARTESIAN_POINT ( 'NONE',  ( 0.000000000000000000, 0.000000000000000000, 4.000000000000000000 ) ) ;
#33 = ORGANIZATION ( 'UNSPECIFIED', 'UNSPECIFIED', '' ) ;
#34 = DIRECTION ( 'NONE',  ( 0.000000000000000000, 0.000000000000000000, 1.000000000000000000 ) ) ;
#35 = PERSON_AND_ORGANIZATION ( #147, #33 ) ;
#36 = APPLICATION_CONTEXT ( 'configuration controlled 3d designs of mechanical parts and assemblies' ) ;
#37 = VECTOR ( 'NONE', #95, 1000.000000000000000 ) ;
#38 = VECTOR ( 'NONE', #116, 1000.000000000000000 ) ;
#39 = COORDINATED_UNIVERSAL_TIME_OFFSET ( 5, 0, .BEHIND. ) ;
#40 = AXIS2_PLACEMENT_3D ( 'NONE', #173, #157, #11 ) ;
#41 = CIRCLE ( 'NONE', #2, 50.00000000000000000 ) ;
#42 = PERSON_AND_ORGANIZATION ( #147, #33 ) ;
#43 = ORIENTED_EDGE ( 'NONE', *, *, #133, .T. ) ;
#44 = CARTESIAN_POINT ( 'NONE',  ( 0.000000000000000000, 0.000000000000000000, 4.000000000000000000 ) ) ;
#45 = CALENDAR_DATE ( 2021, 30, 3 ) ;
#46 = CARTESIAN_POINT ( 'NONE',  ( 0.000000000000000000, 0.000000000000000000, -4.000000000000000000 ) ) ;
#47 = PERSON_AND_ORGANIZATION_ROLE ( 'creator' ) ;
#48 = PERSON_AND_ORGANIZATION ( #147, #33 ) ;
#49 = ORIENTED_EDGE ( 'NONE', *, *, #58, .T. ) ;
#50 = APPLICATION_PROTOCOL_DEFINITION ( 'international standard', 'config_control_design', 1994, #36 ) ;
#51 = ORIENTED_EDGE ( 'NONE', *, *, #161, .F. ) ;
#52 = AXIS2_PLACEMENT_3D ( 'NONE', #44, #34, #108 ) ;
#53 = CC_DESIGN_PERSON_AND_ORGANIZATION_ASSIGNMENT ( #12, #171, ( #30 ) ) ;
#54 = FACE_OUTER_BOUND ( 'NONE', #132, .T. ) ;
#55 = CALENDAR_DATE ( 2021, 30, 3 ) ;
#56 = CC_DESIGN_PERSON_AND_ORGANIZATION_ASSIGNMENT ( #3, #123, ( #111 ) ) ;
#57 = VERTEX_POINT ( 'NONE', #139 ) ;
#58 = EDGE_CURVE ( 'NONE', #57, #118, #41, .T. ) ;
#59 = DIRECTION ( 'NONE',  ( 1.000000000000000000, 0.000000000000000000, 0.000000000000000000 ) ) ;
#60 = CC_DESIGN_DATE_AND_TIME_ASSIGNMENT ( #14, #131, ( #81 ) ) ;
#61 = DIRECTION ( 'NONE',  ( -0.000000000000000000, -0.000000000000000000, -1.000000000000000000 ) ) ;
#62 = DIRECTION ( 'NONE',  ( 1.000000000000000000, 0.000000000000000000, 0.000000000000000000 ) ) ;
#63 = DIRECTION ( 'NONE',  ( 1.000000000000000000, 0.000000000000000000, -0.000000000000000000 ) ) ;
#64 = CARTESIAN_POINT ( 'NONE',  ( 50.00000000000000000, 6.123233995736766085E-15, 4.000000000000000000 ) ) ;
#65 = PERSON_AND_ORGANIZATION_ROLE ( 'design_owner' ) ;
#66 = SECURITY_CLASSIFICATION_LEVEL ( 'unclassified' ) ;
#67 = DATE_TIME_ROLE ( 'classification_date' ) ;
#68 = ORIENTED_EDGE ( 'NONE', *, *, #8, .F. ) ;
#69 = AXIS2_PLACEMENT_3D ( 'NONE', #156, #61, #103 ) ;
#70 = PRODUCT_RELATED_PRODUCT_CATEGORY ( 'detail', '', ( #135 ) ) ;
#71 = ADVANCED_BREP_SHAPE_REPRESENTATION ( 'Web Model 39292_11930', ( #112, #22 ), #165 ) ;
#72 = AXIS2_PLACEMENT_3D ( 'NONE', #32, #154, #168 ) ;
#73 = APPROVAL_DATE_TIME ( #88, #167 ) ;
#74 = CC_DESIGN_PERSON_AND_ORGANIZATION_ASSIGNMENT ( #150, #65, ( #135 ) ) ;
#75 = APPROVAL_PERSON_ORGANIZATION ( #35, #167, #172 ) ;
#76 = ORIENTED_EDGE ( 'NONE', *, *, #8, .T. ) ;
#77 = LINE ( 'NONE', #64, #37 ) ;
#78 = CARTESIAN_POINT ( 'NONE',  ( 50.00000000000000000, 6.123233995736766085E-15, -4.000000000000000000 ) ) ;
#79 = APPLICATION_PROTOCOL_DEFINITION ( 'international standard', 'config_control_design', 1994, #23 ) ;
#80 = APPROVAL_DATE_TIME ( #100, #26 ) ;
#81 = PRODUCT_DEFINITION ( 'UNKNOWN', '', #111, #174 ) ;
#82 = CARTESIAN_POINT ( 'NONE',  ( 0.000000000000000000, 0.000000000000000000, 0.000000000000000000 ) ) ;
#83 = EDGE_LOOP ( 'NONE', ( #68, #90, #146, #110 ) ) ;
#84 = DIRECTION ( 'NONE',  ( 0.000000000000000000, 0.000000000000000000, 1.000000000000000000 ) ) ;
#85 = AXIS2_PLACEMENT_3D ( 'NONE', #104, #153, #59 ) ;
#86 = LOCAL_TIME ( 13, 3, 16.00000000000000000, #39 ) ;
#87 = ORIENTED_EDGE ( 'NONE', *, *, #134, .F. ) ;
#88 = DATE_AND_TIME ( #130, #113 ) ;
#89 = PERSON_AND_ORGANIZATION ( #147, #33 ) ;
#90 = ORIENTED_EDGE ( 'NONE', *, *, #161, .T. ) ;
#91 = CC_DESIGN_APPROVAL ( #26, ( #81 ) ) ;
#92 = DIRECTION ( 'NONE',  ( 0.000000000000000000, 0.000000000000000000, 1.000000000000000000 ) ) ;
#93 = CARTESIAN_POINT ( 'NONE',  ( 0.000000000000000000, 0.000000000000000000, 4.000000000000000000 ) ) ;
#94 = SHAPE_DEFINITION_REPRESENTATION ( #160, #71 ) ;
#95 = DIRECTION ( 'NONE',  ( -0.000000000000000000, -0.000000000000000000, -1.000000000000000000 ) ) ;
#96 = CC_DESIGN_SECURITY_CLASSIFICATION ( #30, ( #111 ) ) ;
#97 = DIRECTION ( 'NONE',  ( 1.000000000000000000, 0.000000000000000000, 0.000000000000000000 ) ) ;
#98 = COORDINATED_UNIVERSAL_TIME_OFFSET ( 5, 0, .BEHIND. ) ;
#99 = CC_DESIGN_PERSON_AND_ORGANIZATION_ASSIGNMENT ( #48, #47, ( #81 ) ) ;
#100 = DATE_AND_TIME ( #55, #20 ) ;
#101 = CC_DESIGN_APPROVAL ( #162, ( #30 ) ) ;
#102 = DIRECTION ( 'NONE',  ( 0.000000000000000000, 0.000000000000000000, 1.000000000000000000 ) ) ;
#103 = DIRECTION ( 'NONE',  ( -1.000000000000000000, 0.000000000000000000, 0.000000000000000000 ) ) ;
#104 = CARTESIAN_POINT ( 'NONE',  ( 0.000000000000000000, 0.000000000000000000, -4.000000000000000000 ) ) ;
#105 = LOCAL_TIME ( 13, 3, 16.00000000000000000, #127 ) ;
#106 = MECHANICAL_CONTEXT ( 'NONE', #23, 'mechanical' ) ;
#107 = FACE_OUTER_BOUND ( 'NONE', #83, .T. ) ;
#108 = DIRECTION ( 'NONE',  ( 1.000000000000000000, 0.000000000000000000, 0.000000000000000000 ) ) ;
#109 = APPROVAL_ROLE ( '' ) ;
#110 = ORIENTED_EDGE ( 'NONE', *, *, #133, .F. ) ;
#111 = PRODUCT_DEFINITION_FORMATION_WITH_SPECIFIED_SOURCE ( 'ANY', '', #135, .NOT_KNOWN. ) ;
#112 = MANIFOLD_SOLID_BREP ( 'Boss-Extrude1', #126 ) ;
#113 = LOCAL_TIME ( 13, 3, 16.00000000000000000, #164 ) ;
#114 = VERTEX_POINT ( 'NONE', #31 ) ;
#115 = CARTESIAN_POINT ( 'NONE',  ( 0.000000000000000000, 0.000000000000000000, -4.000000000000000000 ) ) ;
#116 = DIRECTION ( 'NONE',  ( -0.000000000000000000, -0.000000000000000000, -1.000000000000000000 ) ) ;
#117 = CYLINDRICAL_SURFACE ( 'NONE', #69, 50.00000000000000000 ) ;
#118 = VERTEX_POINT ( 'NONE', #78 ) ;
#119 = APPROVAL_PERSON_ORGANIZATION ( #89, #26, #19 ) ;
#120 = APPROVAL_STATUS ( 'not_yet_approved' ) ;
#121 = ORIENTED_EDGE ( 'NONE', *, *, #58, .F. ) ;
#122 =( NAMED_UNIT ( * ) SI_UNIT ( $, .STERADIAN. ) SOLID_ANGLE_UNIT ( ) );
#123 = PERSON_AND_ORGANIZATION_ROLE ( 'creator' ) ;
#124 = CIRCLE ( 'NONE', #24, 50.00000000000000000 ) ;
#125 = COORDINATED_UNIVERSAL_TIME_OFFSET ( 5, 0, .BEHIND. ) ;
#126 = CLOSED_SHELL ( 'NONE', ( #137, #16, #138, #27 ) ) ;
#127 = COORDINATED_UNIVERSAL_TIME_OFFSET ( 5, 0, .BEHIND. ) ;
#128 = DIRECTION ( 'NONE',  ( 1.000000000000000000, 0.000000000000000000, 0.000000000000000000 ) ) ;
#129 = ORIENTED_EDGE ( 'NONE', *, *, #134, .T. ) ;
#130 = CALENDAR_DATE ( 2021, 30, 3 ) ;
#131 = DATE_TIME_ROLE ( 'creation_date' ) ;
#132 = EDGE_LOOP ( 'NONE', ( #121, #136 ) ) ;
#133 = EDGE_CURVE ( 'NONE', #1, #57, #163, .T. ) ;
#134 = EDGE_CURVE ( 'NONE', #1, #114, #143, .T. ) ;
#135 = PRODUCT ( 'Web Model 39292_11930', 'Web Model 39292_11930', '', ( #106 ) ) ;
#136 = ORIENTED_EDGE ( 'NONE', *, *, #15, .F. ) ;
#137 = ADVANCED_FACE ( 'NONE', ( #107 ), #117, .T. ) ;
#138 = ADVANCED_FACE ( 'NONE', ( #5 ), #144, .T. ) ;
#139 = CARTESIAN_POINT ( 'NONE',  ( -50.00000000000000000, 0.000000000000000000, -4.000000000000000000 ) ) ;
#140 =( NAMED_UNIT ( * ) PLANE_ANGLE_UNIT ( ) SI_UNIT ( $, .RADIAN. ) );
#141 = PERSON_AND_ORGANIZATION ( #147, #33 ) ;
#142 =( LENGTH_UNIT ( ) NAMED_UNIT ( * ) SI_UNIT ( .MILLI., .METRE. ) );
#143 = CIRCLE ( 'NONE', #52, 50.00000000000000000 ) ;
#144 = PLANE ( 'NONE',  #40 ) ;
#145 = DATE_AND_TIME ( #148, #105 ) ;
#146 = ORIENTED_EDGE ( 'NONE', *, *, #15, .T. ) ;
#147 = PERSON ( 'UNSPECIFIED', 'UNSPECIFIED', 'UNSPECIFIED', ('UNSPECIFIED'), ('UNSPECIFIED'), ('UNSPECIFIED') ) ;
#148 = CALENDAR_DATE ( 2021, 30, 3 ) ;
#149 = AXIS2_PLACEMENT_3D ( 'NONE', #46, #102, #63 ) ;
#150 = PERSON_AND_ORGANIZATION ( #147, #33 ) ;
#151 = UNCERTAINTY_MEASURE_WITH_UNIT (LENGTH_MEASURE( 1.000000000000000082E-05 ), #142, 'distance_accuracy_value', 'NONE');
#152 = CC_DESIGN_PERSON_AND_ORGANIZATION_ASSIGNMENT ( #42, #159, ( #111 ) ) ;
#153 = DIRECTION ( 'NONE',  ( 0.000000000000000000, 0.000000000000000000, 1.000000000000000000 ) ) ;
#154 = DIRECTION ( 'NONE',  ( -0.000000000000000000, -0.000000000000000000, -1.000000000000000000 ) ) ;
#155 = FACE_OUTER_BOUND ( 'NONE', #21, .T. ) ;
#156 = CARTESIAN_POINT ( 'NONE',  ( 0.000000000000000000, 0.000000000000000000, 4.000000000000000000 ) ) ;
#157 = DIRECTION ( 'NONE',  ( 0.000000000000000000, 0.000000000000000000, 1.000000000000000000 ) ) ;
#158 = APPROVAL_STATUS ( 'not_yet_approved' ) ;
#159 = PERSON_AND_ORGANIZATION_ROLE ( 'design_supplier' ) ;
#160 = PRODUCT_DEFINITION_SHAPE ( 'NONE', 'NONE',  #81 ) ;
#161 = EDGE_CURVE ( 'NONE', #114, #118, #77, .T. ) ;
#162 = APPROVAL ( #170, 'UNSPECIFIED' ) ;
#163 = LINE ( 'NONE', #17, #38 ) ;
#164 = COORDINATED_UNIVERSAL_TIME_OFFSET ( 5, 0, .BEHIND. ) ;
#165 =( GEOMETRIC_REPRESENTATION_CONTEXT ( 3 ) GLOBAL_UNCERTAINTY_ASSIGNED_CONTEXT ( ( #151 ) ) GLOBAL_UNIT_ASSIGNED_CONTEXT ( ( #142, #140, #122 ) ) REPRESENTATION_CONTEXT ( 'NONE', 'WORKASPACE' ) );
#166 = CIRCLE ( 'NONE', #85, 50.00000000000000000 ) ;
#167 = APPROVAL ( #120, 'UNSPECIFIED' ) ;
#168 = DIRECTION ( 'NONE',  ( -1.000000000000000000, 0.000000000000000000, 0.000000000000000000 ) ) ;
#169 = CALENDAR_DATE ( 2021, 30, 3 ) ;
#170 = APPROVAL_STATUS ( 'not_yet_approved' ) ;
#171 = PERSON_AND_ORGANIZATION_ROLE ( 'classification_officer' ) ;
#172 = APPROVAL_ROLE ( '' ) ;
#173 = CARTESIAN_POINT ( 'NONE',  ( 0.000000000000000000, 0.000000000000000000, 4.000000000000000000 ) ) ;
#174 = DESIGN_CONTEXT ( 'detailed design', #36, 'design' ) ;
#175 = LOCAL_TIME ( 13, 3, 16.00000000000000000, #98 ) ;
ENDSEC;
END-ISO-10303-21;
