ISO-10303-21;
HEADER;
FILE_DESCRIPTION (( 'STEP AP203' ),
    '1' );
FILE_NAME ('TTN206025-E0W.STEP',
    '2020-01-17T20:16:50',
    ( '' ),
    ( '' ),
    'SwSTEP 2.0',
    'SolidWorks 2018',
    '' );
FILE_SCHEMA (( 'CONFIG_CONTROL_DESIGN' ));
ENDSEC;

DATA;
#1 = PLANE ( 'NONE',  #24 ) ;
#2 = ORIENTED_EDGE ( 'NONE', *, *, #28, .F. ) ;
#3 = PERSON_AND_ORGANIZATION_ROLE ( 'classification_officer' ) ;
#4 = CIRCLE ( 'NONE', #245, 12.69999999999999929 ) ;
#5 = CARTESIAN_POINT ( 'NONE',  ( 0.0000000000000000000, 0.0000000000000000000, 0.0000000000000000000 ) ) ;
#6 = LOCAL_TIME ( 15, 16, 50.00000000000000000, #173 ) ;
#7 = APPLICATION_PROTOCOL_DEFINITION ( 'international standard', 'config_control_design', 1994, #187 ) ;
#8 = AXIS2_PLACEMENT_3D ( 'NONE', #27, #66, #276 ) ;
#9 = DATE_TIME_ROLE ( 'classification_date' ) ;
#10 = ORIENTED_EDGE ( 'NONE', *, *, #35, .T. ) ;
#11 = AXIS2_PLACEMENT_3D ( 'NONE', #258, #289, #125 ) ;
#12 = VERTEX_POINT ( 'NONE', #192 ) ;
#13 = CARTESIAN_POINT ( 'NONE',  ( 0.0000000000000000000, 9.515545000922766507E-18, -1.247700321493085518 ) ) ;
#14 = CARTESIAN_POINT ( 'NONE',  ( 1.537982313792428661E-15, 12.55857864376269006, -1.247700321493083964 ) ) ;
#15 = VERTEX_POINT ( 'NONE', #174 ) ;
#16 =( GEOMETRIC_REPRESENTATION_CONTEXT ( 3 ) GLOBAL_UNCERTAINTY_ASSIGNED_CONTEXT ( ( #264 ) ) GLOBAL_UNIT_ASSIGNED_CONTEXT ( ( #256, #74, #186 ) ) REPRESENTATION_CONTEXT ( 'NONE', 'WORKASPACE' ) );
#17 = EDGE_CURVE ( 'NONE', #97, #15, #120, .T. ) ;
#18 = CALENDAR_DATE ( 2020, 17, 1 ) ;
#19 = FACE_OUTER_BOUND ( 'NONE', #160, .T. ) ;
#20 = APPROVAL ( #277, 'UNSPECIFIED' ) ;
#21 = CARTESIAN_POINT ( 'NONE',  ( 1.555301434917138433E-15, -12.69999999999999929, -1.106278965255777624 ) ) ;
#22 = ADVANCED_FACE ( 'NONE', ( #39 ), #54, .T. ) ;
#23 = VECTOR ( 'NONE', #30, 1000.000000000000000 ) ;
#24 = AXIS2_PLACEMENT_3D ( 'NONE', #137, #197, #180 ) ;
#25 = ORIENTED_EDGE ( 'NONE', *, *, #283, .T. ) ;
#26 = DIRECTION ( 'NONE',  ( 0.0000000000000000000, 1.000000000000000000, 1.208642382658147351E-16 ) ) ;
#27 = CARTESIAN_POINT ( 'NONE',  ( 0.0000000000000000000, 9.515545000922766507E-18, -1.247700321493085518 ) ) ;
#28 = EDGE_CURVE ( 'NONE', #239, #12, #78, .T. ) ;
#29 = DIRECTION ( 'NONE',  ( 0.0000000000000000000, 1.000000000000000000, 1.365923996832131609E-16 ) ) ;
#30 = DIRECTION ( 'NONE',  ( -0.0000000000000000000, 1.224646799147353207E-16, -1.000000000000000000 ) ) ;
#31 = APPLICATION_PROTOCOL_DEFINITION ( 'international standard', 'config_control_design', 1994, #142 ) ;
#32 = APPROVAL_ROLE ( '' ) ;
#33 = FACE_OUTER_BOUND ( 'NONE', #234, .T. ) ;
#34 = DIRECTION ( 'NONE',  ( 0.0000000000000000000, -1.000000000000000000, -1.195183497228115281E-16 ) ) ;
#35 = EDGE_CURVE ( 'NONE', #237, #301, #82, .T. ) ;
#36 = ORIENTED_EDGE ( 'NONE', *, *, #86, .F. ) ;
#37 = PRODUCT_DEFINITION_SHAPE ( 'NONE', 'NONE',  #100 ) ;
#38 = CC_DESIGN_APPROVAL ( #20, ( #146 ) ) ;
#39 = FACE_OUTER_BOUND ( 'NONE', #241, .T. ) ;
#40 = LOCAL_TIME ( 15, 16, 50.00000000000000000, #52 ) ;
#41 = ORIENTED_EDGE ( 'NONE', *, *, #294, .F. ) ;
#42 = DIRECTION ( 'NONE',  ( 0.0000000000000000000, -1.000000000000000000, -1.387778780781446169E-16 ) ) ;
#43 = FACE_OUTER_BOUND ( 'NONE', #62, .T. ) ;
#44 = DIRECTION ( 'NONE',  ( -0.0000000000000000000, 1.224646799147353207E-16, -1.000000000000000000 ) ) ;
#45 = AXIS2_PLACEMENT_3D ( 'NONE', #129, #213, #42 ) ;
#46 = ORIENTED_EDGE ( 'NONE', *, *, #294, .T. ) ;
#47 = EDGE_CURVE ( 'NONE', #15, #88, #278, .T. ) ;
#48 = ORIENTED_EDGE ( 'NONE', *, *, #275, .T. ) ;
#49 = DIRECTION ( 'NONE',  ( 0.0000000000000000000, 1.000000000000000000, 1.195183497228115281E-16 ) ) ;
#50 = DIRECTION ( 'NONE',  ( 0.0000000000000000000, 0.0000000000000000000, 1.000000000000000000 ) ) ;
#51 = DATE_AND_TIME ( #297, #154 ) ;
#52 = COORDINATED_UNIVERSAL_TIME_OFFSET ( 5, 0, .BEHIND. ) ;
#53 = ORIENTED_EDGE ( 'NONE', *, *, #275, .F. ) ;
#54 = CONICAL_SURFACE ( 'NONE', #11, 12.55857864376269006, 0.7853981633974498333 ) ;
#55 = SECURITY_CLASSIFICATION ( '', '', #141 ) ;
#56 = PERSON_AND_ORGANIZATION ( #169, #164 ) ;
#57 = ORIENTED_EDGE ( 'NONE', *, *, #86, .T. ) ;
#58 = VECTOR ( 'NONE', #259, 1000.000000000000000 ) ;
#59 = AXIS2_PLACEMENT_3D ( 'NONE', #143, #72, #235 ) ;
#60 = DIRECTION ( 'NONE',  ( 0.0000000000000000000, 1.000000000000000000, 1.195183497228115281E-16 ) ) ;
#61 = ADVANCED_FACE ( 'NONE', ( #172 ), #90, .T. ) ;
#62 = EDGE_LOOP ( 'NONE', ( #2, #65, #41, #263 ) ) ;
#63 = AXIS2_PLACEMENT_3D ( 'NONE', #139, #136, #178 ) ;
#64 = CARTESIAN_POINT ( 'NONE',  ( 0.0000000000000000000, -3.637200993467638614E-16, 1.800000000000000488 ) ) ;
#65 = ORIENTED_EDGE ( 'NONE', *, *, #212, .T. ) ;
#66 = DIRECTION ( 'NONE',  ( -0.0000000000000000000, 1.224646799147353207E-16, -1.000000000000000000 ) ) ;
#67 = CC_DESIGN_PERSON_AND_ORGANIZATION_ASSIGNMENT ( #56, #3, ( #55 ) ) ;
#68 = ORIENTED_EDGE ( 'NONE', *, *, #47, .F. ) ;
#69 = EDGE_CURVE ( 'NONE', #88, #15, #293, .T. ) ;
#70 = CARTESIAN_POINT ( 'NONE',  ( 0.0000000000000000000, -3.637200993467638614E-16, 1.800000000000000488 ) ) ;
#71 = PERSON_AND_ORGANIZATION_ROLE ( 'design_owner' ) ;
#72 = DIRECTION ( 'NONE',  ( 0.0000000000000000000, -1.224646799147353207E-16, 1.000000000000000000 ) ) ;
#73 = ORIENTED_EDGE ( 'NONE', *, *, #262, .T. ) ;
#74 =( NAMED_UNIT ( * ) PLANE_ANGLE_UNIT ( ) SI_UNIT ( $, .RADIAN. ) );
#75 = APPROVAL_STATUS ( 'not_yet_approved' ) ;
#76 = AXIS2_PLACEMENT_3D ( 'NONE', #5, #208, #279 ) ;
#77 = APPROVAL_PERSON_ORGANIZATION ( #291, #121, #32 ) ;
#78 = CIRCLE ( 'NONE', #45, 12.49999999999999645 ) ;
#79 = AXIS2_PLACEMENT_3D ( 'NONE', #112, #274, #140 ) ;
#80 = CC_DESIGN_DATE_AND_TIME_ASSIGNMENT ( #247, #9, ( #55 ) ) ;
#81 = ORIENTED_EDGE ( 'NONE', *, *, #283, .F. ) ;
#82 = CIRCLE ( 'NONE', #215, 105.2000000000000028 ) ;
#83 = CARTESIAN_POINT ( 'NONE',  ( 1.555301434917138433E-15, -12.69999999999999929, -2.000000000000001776 ) ) ;
#84 = DATE_AND_TIME ( #148, #40 ) ;
#85 = CARTESIAN_POINT ( 'NONE',  ( 0.0000000000000000000, 12.55857864376269717, -1.247700321493092179 ) ) ;
#86 = EDGE_CURVE ( 'NONE', #97, #237, #268, .T. ) ;
#87 = CARTESIAN_POINT ( 'NONE',  ( 0.0000000000000000000, 12.69999999999999929, 1.800000000000001821 ) ) ;
#88 = VERTEX_POINT ( 'NONE', #21 ) ;
#89 = CARTESIAN_POINT ( 'NONE',  ( 0.0000000000000000000, -1.897835144638653128E-14, 103.2000000000000028 ) ) ;
#90 = CONICAL_SURFACE ( 'NONE', #269, 12.55857864376269006, 0.7853981633974498333 ) ;
#91 = AXIS2_PLACEMENT_3D ( 'NONE', #244, #159, #49 ) ;
#92 = APPROVAL_PERSON_ORGANIZATION ( #107, #20, #231 ) ;
#93 = CARTESIAN_POINT ( 'NONE',  ( 0.0000000000000000000, 12.69999999999999929, -1.999999999999998224 ) ) ;
#94 = CARTESIAN_POINT ( 'NONE',  ( 0.0000000000000000000, -3.637200993467638614E-16, 1.800000000000000488 ) ) ;
#95 = FACE_OUTER_BOUND ( 'NONE', #223, .T. ) ;
#96 = APPROVAL ( #280, 'UNSPECIFIED' ) ;
#97 = VERTEX_POINT ( 'NONE', #85 ) ;
#98 = DESIGN_CONTEXT ( 'detailed design', #187, 'design' ) ;
#99 = FACE_OUTER_BOUND ( 'NONE', #220, .T. ) ;
#100 = PRODUCT_DEFINITION ( 'UNKNOWN', '', #146, #98 ) ;
#101 = EDGE_CURVE ( 'NONE', #237, #97, #153, .T. ) ;
#102 = DIRECTION ( 'NONE',  ( -0.0000000000000000000, 1.224646799147353207E-16, -1.000000000000000000 ) ) ;
#103 = ADVANCED_FACE ( 'NONE', ( #254 ), #224, .T. ) ;
#104 = VECTOR ( 'NONE', #170, 1000.000000000000114 ) ;
#105 = CARTESIAN_POINT ( 'NONE',  ( 0.0000000000000000000, -1.897835144638653128E-14, 103.2000000000000028 ) ) ;
#106 = EDGE_LOOP ( 'NONE', ( #228, #53, #73, #127 ) ) ;
#107 = PERSON_AND_ORGANIZATION ( #169, #164 ) ;
#108 = CC_DESIGN_PERSON_AND_ORGANIZATION_ASSIGNMENT ( #118, #71, ( #130 ) ) ;
#109 = ORIENTED_EDGE ( 'NONE', *, *, #17, .F. ) ;
#110 = FACE_OUTER_BOUND ( 'NONE', #106, .T. ) ;
#111 = CARTESIAN_POINT ( 'NONE',  ( 1.537982313792429647E-15, -12.55857864376270427, -1.247700321493093734 ) ) ;
#112 = CARTESIAN_POINT ( 'NONE',  ( 0.0000000000000000000, -1.897835144638653128E-14, 103.2000000000000028 ) ) ;
#113 = PERSON_AND_ORGANIZATION ( #169, #164 ) ;
#114 = DIRECTION ( 'NONE',  ( 0.0000000000000000000, -0.7071067811865487940, 0.7071067811865463515 ) ) ;
#115 = CARTESIAN_POINT ( 'NONE',  ( 1.543054966925664878E-15, -12.49999999999999645, 1.999999999999997335 ) ) ;
#116 = ORIENTED_EDGE ( 'NONE', *, *, #17, .T. ) ;
#117 = COORDINATED_UNIVERSAL_TIME_OFFSET ( 5, 0, .BEHIND. ) ;
#118 = PERSON_AND_ORGANIZATION ( #169, #164 ) ;
#119 = DIRECTION ( 'NONE',  ( -0.0000000000000000000, 1.224646799147353947E-16, -1.000000000000000000 ) ) ;
#120 = LINE ( 'NONE', #14, #58 ) ;
#121 = APPROVAL ( #75, 'UNSPECIFIED' ) ;
#122 = ORIENTED_EDGE ( 'NONE', *, *, #182, .F. ) ;
#123 = VERTEX_POINT ( 'NONE', #87 ) ;
#124 = PERSON_AND_ORGANIZATION ( #169, #164 ) ;
#125 = DIRECTION ( 'NONE',  ( 0.0000000000000000000, -1.000000000000000000, -1.208642382658147351E-16 ) ) ;
#126 = AXIS2_PLACEMENT_3D ( 'NONE', #163, #248, #155 ) ;
#127 = ORIENTED_EDGE ( 'NONE', *, *, #193, .F. ) ;
#128 = MANIFOLD_SOLID_BREP ( 'TTN206041-1-solid1', #267 ) ;
#129 = CARTESIAN_POINT ( 'NONE',  ( 0.0000000000000000000, -3.882130353297108713E-16, 1.999999999999999112 ) ) ;
#130 = PRODUCT ( 'TTN206025-E0W', 'TTN206025-E0W', '', ( #165 ) ) ;
#131 = DIRECTION ( 'NONE',  ( -0.0000000000000000000, 1.224646799147353207E-16, -1.000000000000000000 ) ) ;
#132 = SPHERICAL_SURFACE ( 'NONE', #79, 105.2000000000000028 ) ;
#133 = LOCAL_TIME ( 15, 16, 50.00000000000000000, #299 ) ;
#134 = ADVANCED_FACE ( 'NONE', ( #19 ), #204, .T. ) ;
#135 = VERTEX_POINT ( 'NONE', #183 ) ;
#136 = DIRECTION ( 'NONE',  ( -0.0000000000000000000, 1.224646799147353207E-16, -1.000000000000000000 ) ) ;
#137 = CARTESIAN_POINT ( 'NONE',  ( 0.0000000000000000000, -3.882130353297108220E-16, 1.999999999999999112 ) ) ;
#138 = AXIS2_PLACEMENT_3D ( 'NONE', #94, #119, #34 ) ;
#139 = CARTESIAN_POINT ( 'NONE',  ( 0.0000000000000000000, 1.016456843292303500E-16, -2.000000000000000000 ) ) ;
#140 = DIRECTION ( 'NONE',  ( 0.0000000000000000000, 1.000000000000000000, 1.319181350552705014E-16 ) ) ;
#141 = SECURITY_CLASSIFICATION_LEVEL ( 'unclassified' ) ;
#142 = APPLICATION_CONTEXT ( 'configuration controlled 3d designs of mechanical parts and assemblies' ) ;
#143 = CARTESIAN_POINT ( 'NONE',  ( 0.0000000000000000000, -3.882130353297108713E-16, 1.999999999999999112 ) ) ;
#144 = PERSON_AND_ORGANIZATION ( #169, #164 ) ;
#145 = EDGE_LOOP ( 'NONE', ( #57, #10, #122 ) ) ;
#146 = PRODUCT_DEFINITION_FORMATION_WITH_SPECIFIED_SOURCE ( 'ANY', '', #130, .NOT_KNOWN. ) ;
#147 = APPROVAL_PERSON_ORGANIZATION ( #177, #96, #281 ) ;
#148 = CALENDAR_DATE ( 2020, 17, 1 ) ;
#149 = LINE ( 'NONE', #221, #285 ) ;
#150 = ADVANCED_FACE ( 'NONE', ( #33 ), #196, .T. ) ;
#151 = ADVANCED_FACE ( 'NONE', ( #99 ), #132, .T. ) ;
#152 = CARTESIAN_POINT ( 'NONE',  ( 0.0000000000000000000, -7.803576123787071784E-18, -1.106278965255776070 ) ) ;
#153 = CIRCLE ( 'NONE', #189, 12.55857864376269006 ) ;
#154 = LOCAL_TIME ( 15, 16, 50.00000000000000000, #117 ) ;
#155 = DIRECTION ( 'NONE',  ( 0.0000000000000000000, 1.000000000000000000, 1.319181350552705014E-16 ) ) ;
#156 = CALENDAR_DATE ( 2020, 17, 1 ) ;
#157 = AXIS2_PLACEMENT_3D ( 'NONE', #195, #131, #60 ) ;
#158 = DIRECTION ( 'NONE',  ( -1.000000000000000000, 0.0000000000000000000, 0.0000000000000000000 ) ) ;
#159 = DIRECTION ( 'NONE',  ( -0.0000000000000000000, 1.224646799147353947E-16, -1.000000000000000000 ) ) ;
#160 = EDGE_LOOP ( 'NONE', ( #167, #296, #25, #209 ) ) ;
#161 = CARTESIAN_POINT ( 'NONE',  ( 0.0000000000000000000, 1.016456843292303500E-16, -2.000000000000000000 ) ) ;
#162 = CC_DESIGN_APPROVAL ( #96, ( #55 ) ) ;
#163 = CARTESIAN_POINT ( 'NONE',  ( 0.0000000000000000000, -1.897835144638653128E-14, 103.2000000000000028 ) ) ;
#164 = ORGANIZATION ( 'UNSPECIFIED', 'UNSPECIFIED', '' ) ;
#165 = MECHANICAL_CONTEXT ( 'NONE', #142, 'mechanical' ) ;
#166 = PERSON_AND_ORGANIZATION_ROLE ( 'design_supplier' ) ;
#167 = ORIENTED_EDGE ( 'NONE', *, *, #257, .F. ) ;
#168 = LINE ( 'NONE', #206, #104 ) ;
#169 = PERSON ( 'UNSPECIFIED', 'UNSPECIFIED', 'UNSPECIFIED', ('UNSPECIFIED'), ('UNSPECIFIED'), ('UNSPECIFIED') ) ;
#170 = DIRECTION ( 'NONE',  ( 0.0000000000000000000, 0.7071067811865536790, -0.7071067811865413555 ) ) ;
#171 = APPROVAL_DATE_TIME ( #51, #96 ) ;
#172 = FACE_OUTER_BOUND ( 'NONE', #238, .T. ) ;
#173 = COORDINATED_UNIVERSAL_TIME_OFFSET ( 5, 0, .BEHIND. ) ;
#174 = CARTESIAN_POINT ( 'NONE',  ( 0.0000000000000000000, 12.69999999999999929, -1.106278965255774738 ) ) ;
#175 = AXIS2_PLACEMENT_3D ( 'NONE', #152, #102, #265 ) ;
#176 = CC_DESIGN_PERSON_AND_ORGANIZATION_ASSIGNMENT ( #144, #253, ( #146 ) ) ;
#177 = PERSON_AND_ORGANIZATION ( #169, #164 ) ;
#178 = DIRECTION ( 'NONE',  ( 0.0000000000000000000, 1.000000000000000000, 1.365923996832131609E-16 ) ) ;
#179 = ORIENTED_EDGE ( 'NONE', *, *, #182, .T. ) ;
#180 = DIRECTION ( 'NONE',  ( 0.0000000000000000000, -1.000000000000000000, -1.224646799147353207E-16 ) ) ;
#181 = DIRECTION ( 'NONE',  ( -0.0000000000000000000, 1.224646799147353947E-16, -1.000000000000000000 ) ) ;
#182 = EDGE_CURVE ( 'NONE', #97, #301, #191, .T. ) ;
#183 = CARTESIAN_POINT ( 'NONE',  ( 1.555301434917138433E-15, -12.69999999999999929, 1.799999999999998934 ) ) ;
#184 = ORIENTED_EDGE ( 'NONE', *, *, #35, .F. ) ;
#185 = ORIENTED_EDGE ( 'NONE', *, *, #47, .T. ) ;
#186 =( NAMED_UNIT ( * ) SI_UNIT ( $, .STERADIAN. ) SOLID_ANGLE_UNIT ( ) );
#187 = APPLICATION_CONTEXT ( 'configuration controlled 3d designs of mechanical parts and assemblies' ) ;
#188 = APPROVAL_DATE_TIME ( #214, #121 ) ;
#189 = AXIS2_PLACEMENT_3D ( 'NONE', #225, #272, #26 ) ;
#190 = CC_DESIGN_SECURITY_CLASSIFICATION ( #55, ( #146 ) ) ;
#191 = CIRCLE ( 'NONE', #232, 105.2000000000000028 ) ;
#192 = CARTESIAN_POINT ( 'NONE',  ( 0.0000000000000000000, 12.49999999999999645, 2.000000000000000888 ) ) ;
#193 = EDGE_CURVE ( 'NONE', #135, #123, #4, .T. ) ;
#194 = DIRECTION ( 'NONE',  ( 0.0000000000000000000, -1.000000000000000000, -1.208642382658147351E-16 ) ) ;
#195 = CARTESIAN_POINT ( 'NONE',  ( 0.0000000000000000000, -7.803576123787071784E-18, -1.106278965255776070 ) ) ;
#196 = CYLINDRICAL_SURFACE ( 'NONE', #198, 12.69999999999999929 ) ;
#197 = DIRECTION ( 'NONE',  ( 0.0000000000000000000, -1.224646799147353207E-16, 1.000000000000000000 ) ) ;
#198 = AXIS2_PLACEMENT_3D ( 'NONE', #161, #44, #29 ) ;
#199 = APPROVAL_DATE_TIME ( #84, #20 ) ;
#200 = DIRECTION ( 'NONE',  ( 8.659560562355009279E-17, -0.7071067811865535679, -0.7071067811865415775 ) ) ;
#201 = ORIENTED_EDGE ( 'NONE', *, *, #246, .T. ) ;
#202 = PRODUCT_RELATED_PRODUCT_CATEGORY ( 'detail', '', ( #130 ) ) ;
#203 = DATE_TIME_ROLE ( 'creation_date' ) ;
#204 = CYLINDRICAL_SURFACE ( 'NONE', #63, 12.69999999999999929 ) ;
#205 = CARTESIAN_POINT ( 'NONE',  ( 0.0000000000000000000, 3.465750441587009544E-16, -2.000000000000001776 ) ) ;
#206 = CARTESIAN_POINT ( 'NONE',  ( 0.0000000000000000000, 12.69999999999999929, 1.800000000000001821 ) ) ;
#207 = CALENDAR_DATE ( 2020, 17, 1 ) ;
#208 = DIRECTION ( 'NONE',  ( 0.0000000000000000000, 0.0000000000000000000, 1.000000000000000000 ) ) ;
#209 = ORIENTED_EDGE ( 'NONE', *, *, #69, .F. ) ;
#210 = CONICAL_SURFACE ( 'NONE', #282, 12.69999999999999929, 0.7853981633974569387 ) ;
#211 = ADVANCED_BREP_SHAPE_REPRESENTATION ( 'TTN206025-E0W', ( #128, #76 ), #16 ) ;
#212 = EDGE_CURVE ( 'NONE', #239, #135, #251, .T. ) ;
#213 = DIRECTION ( 'NONE',  ( 0.0000000000000000000, -1.224646799147353207E-16, 1.000000000000000000 ) ) ;
#214 = DATE_AND_TIME ( #207, #133 ) ;
#215 = AXIS2_PLACEMENT_3D ( 'NONE', #105, #298, #219 ) ;
#216 = ORIENTED_EDGE ( 'NONE', *, *, #101, .F. ) ;
#217 = LINE ( 'NONE', #83, #287 ) ;
#218 = ADVANCED_FACE ( 'NONE', ( #110 ), #210, .T. ) ;
#219 = DIRECTION ( 'NONE',  ( -1.224646799147352961E-16, 1.000000000000000000, 0.0000000000000000000 ) ) ;
#220 = EDGE_LOOP ( 'NONE', ( #184, #292, #179 ) ) ;
#221 = CARTESIAN_POINT ( 'NONE',  ( 0.0000000000000000000, -12.55857864376269006, -1.247700321493086850 ) ) ;
#222 = DIRECTION ( 'NONE',  ( -0.0000000000000000000, 1.224646799147353207E-16, -1.000000000000000000 ) ) ;
#223 = EDGE_LOOP ( 'NONE', ( #48, #243 ) ) ;
#224 = SPHERICAL_SURFACE ( 'NONE', #126, 105.2000000000000028 ) ;
#225 = CARTESIAN_POINT ( 'NONE',  ( 0.0000000000000000000, 9.515545000922766507E-18, -1.247700321493085518 ) ) ;
#226 = DATE_AND_TIME ( #156, #6 ) ;
#227 = CARTESIAN_POINT ( 'NONE',  ( 1.555301434917138433E-15, -12.69999999999999929, 1.799999999999998934 ) ) ;
#228 = ORIENTED_EDGE ( 'NONE', *, *, #212, .F. ) ;
#229 = CIRCLE ( 'NONE', #138, 12.69999999999999929 ) ;
#230 = PERSON_AND_ORGANIZATION_ROLE ( 'creator' ) ;
#231 = APPROVAL_ROLE ( '' ) ;
#232 = AXIS2_PLACEMENT_3D ( 'NONE', #89, #158, #50 ) ;
#233 = ORIENTED_EDGE ( 'NONE', *, *, #246, .F. ) ;
#234 = EDGE_LOOP ( 'NONE', ( #46, #284, #68, #81 ) ) ;
#235 = DIRECTION ( 'NONE',  ( 0.0000000000000000000, -1.000000000000000000, -1.387778780781446169E-16 ) ) ;
#236 = CC_DESIGN_PERSON_AND_ORGANIZATION_ASSIGNMENT ( #124, #230, ( #100 ) ) ;
#237 = VERTEX_POINT ( 'NONE', #111 ) ;
#238 = EDGE_LOOP ( 'NONE', ( #109, #216, #201, #240 ) ) ;
#239 = VERTEX_POINT ( 'NONE', #115 ) ;
#240 = ORIENTED_EDGE ( 'NONE', *, *, #69, .T. ) ;
#241 = EDGE_LOOP ( 'NONE', ( #36, #116, #185, #233 ) ) ;
#242 = ADVANCED_FACE ( 'NONE', ( #95 ), #1, .T. ) ;
#243 = ORIENTED_EDGE ( 'NONE', *, *, #28, .T. ) ;
#244 = CARTESIAN_POINT ( 'NONE',  ( 0.0000000000000000000, -3.637200993467638614E-16, 1.800000000000000488 ) ) ;
#245 = AXIS2_PLACEMENT_3D ( 'NONE', #70, #181, #300 ) ;
#246 = EDGE_CURVE ( 'NONE', #237, #88, #149, .T. ) ;
#247 = DATE_AND_TIME ( #18, #255 ) ;
#248 = DIRECTION ( 'NONE',  ( 1.000000000000000000, 0.0000000000000000000, -0.0000000000000000000 ) ) ;
#249 = DIRECTION ( 'NONE',  ( 0.0000000000000000000, 1.000000000000000000, 1.195183497228115281E-16 ) ) ;
#250 = CC_DESIGN_DATE_AND_TIME_ASSIGNMENT ( #226, #203, ( #100 ) ) ;
#251 = LINE ( 'NONE', #227, #273 ) ;
#252 = DIRECTION ( 'NONE',  ( -0.0000000000000000000, 1.224646799147353947E-16, -1.000000000000000000 ) ) ;
#253 = PERSON_AND_ORGANIZATION_ROLE ( 'creator' ) ;
#254 = FACE_OUTER_BOUND ( 'NONE', #145, .T. ) ;
#255 = LOCAL_TIME ( 15, 16, 50.00000000000000000, #295 ) ;
#256 =( LENGTH_UNIT ( ) NAMED_UNIT ( * ) SI_UNIT ( .MILLI., .METRE. ) );
#257 = EDGE_CURVE ( 'NONE', #135, #88, #217, .T. ) ;
#258 = CARTESIAN_POINT ( 'NONE',  ( 0.0000000000000000000, 9.515545000922766507E-18, -1.247700321493085518 ) ) ;
#259 = DIRECTION ( 'NONE',  ( 8.659560562354947649E-17, 0.7071067811865485719, 0.7071067811865465735 ) ) ;
#260 = CONICAL_SURFACE ( 'NONE', #91, 12.69999999999999929, 0.7853981633974569387 ) ;
#261 = ADVANCED_FACE ( 'NONE', ( #43 ), #260, .T. ) ;
#262 = EDGE_CURVE ( 'NONE', #12, #123, #168, .T. ) ;
#263 = ORIENTED_EDGE ( 'NONE', *, *, #262, .F. ) ;
#264 = UNCERTAINTY_MEASURE_WITH_UNIT (LENGTH_MEASURE( 1.000000000000000082E-05 ), #256, 'distance_accuracy_value', 'NONE');
#265 = DIRECTION ( 'NONE',  ( 0.0000000000000000000, 1.000000000000000000, 1.195183497228115281E-16 ) ) ;
#266 = CIRCLE ( 'NONE', #59, 12.49999999999999645 ) ;
#267 = CLOSED_SHELL ( 'NONE', ( #261, #22, #150, #103, #151, #242, #134, #61, #218 ) ) ;
#268 = CIRCLE ( 'NONE', #8, 12.55857864376269006 ) ;
#269 = AXIS2_PLACEMENT_3D ( 'NONE', #13, #270, #194 ) ;
#270 = DIRECTION ( 'NONE',  ( 0.0000000000000000000, -1.224646799147353207E-16, 1.000000000000000000 ) ) ;
#271 = LINE ( 'NONE', #93, #23 ) ;
#272 = DIRECTION ( 'NONE',  ( -0.0000000000000000000, 1.224646799147353207E-16, -1.000000000000000000 ) ) ;
#273 = VECTOR ( 'NONE', #200, 1000.000000000000000 ) ;
#274 = DIRECTION ( 'NONE',  ( 1.000000000000000000, 0.0000000000000000000, -0.0000000000000000000 ) ) ;
#275 = EDGE_CURVE ( 'NONE', #12, #239, #266, .T. ) ;
#276 = DIRECTION ( 'NONE',  ( 0.0000000000000000000, 1.000000000000000000, 1.208642382658147351E-16 ) ) ;
#277 = APPROVAL_STATUS ( 'not_yet_approved' ) ;
#278 = CIRCLE ( 'NONE', #157, 12.69999999999999929 ) ;
#279 = DIRECTION ( 'NONE',  ( 1.000000000000000000, 0.0000000000000000000, 0.0000000000000000000 ) ) ;
#280 = APPROVAL_STATUS ( 'not_yet_approved' ) ;
#281 = APPROVAL_ROLE ( '' ) ;
#282 = AXIS2_PLACEMENT_3D ( 'NONE', #64, #252, #249 ) ;
#283 = EDGE_CURVE ( 'NONE', #123, #15, #271, .T. ) ;
#284 = ORIENTED_EDGE ( 'NONE', *, *, #257, .T. ) ;
#285 = VECTOR ( 'NONE', #114, 1000.000000000000000 ) ;
#286 = CC_DESIGN_PERSON_AND_ORGANIZATION_ASSIGNMENT ( #113, #166, ( #146 ) ) ;
#287 = VECTOR ( 'NONE', #222, 1000.000000000000000 ) ;
#288 = SHAPE_DEFINITION_REPRESENTATION ( #37, #211 ) ;
#289 = DIRECTION ( 'NONE',  ( 0.0000000000000000000, -1.224646799147353207E-16, 1.000000000000000000 ) ) ;
#290 = CC_DESIGN_APPROVAL ( #121, ( #100 ) ) ;
#291 = PERSON_AND_ORGANIZATION ( #169, #164 ) ;
#292 = ORIENTED_EDGE ( 'NONE', *, *, #101, .T. ) ;
#293 = CIRCLE ( 'NONE', #175, 12.69999999999999929 ) ;
#294 = EDGE_CURVE ( 'NONE', #123, #135, #229, .T. ) ;
#295 = COORDINATED_UNIVERSAL_TIME_OFFSET ( 5, 0, .BEHIND. ) ;
#296 = ORIENTED_EDGE ( 'NONE', *, *, #193, .T. ) ;
#297 = CALENDAR_DATE ( 2020, 17, 1 ) ;
#298 = DIRECTION ( 'NONE',  ( 1.000000000000000000, 1.224646799147353207E-16, 1.499759782661857608E-32 ) ) ;
#299 = COORDINATED_UNIVERSAL_TIME_OFFSET ( 5, 0, .BEHIND. ) ;
#300 = DIRECTION ( 'NONE',  ( 0.0000000000000000000, -1.000000000000000000, -1.195183497228115281E-16 ) ) ;
#301 = VERTEX_POINT ( 'NONE', #205 ) ;
ENDSEC;
END-ISO-10303-21;
