ISO-10303-21;
HEADER;
FILE_DESCRIPTION (( 'STEP AP203' ),
    '1' );
FILE_NAME ('Web Model 48445.STEP',
    '2017-01-31T15:21:21',
    ( '' ),
    ( '' ),
    'SwSTEP 2.0',
    'SolidWorks 2016',
    '' );
FILE_SCHEMA (( 'CONFIG_CONTROL_DESIGN' ));
ENDSEC;

DATA;
#1 = DATE_AND_TIME ( #98, #137 ) ;
#2 = PERSON_AND_ORGANIZATION ( #33, #122 ) ;
#3 = EDGE_CURVE ( 'NONE', #109, #169, #14, .T. ) ;
#4 = CALENDAR_DATE ( 2017, 31, 1 ) ;
#5 = CLOSED_SHELL ( 'NONE', ( #35, #123, #84, #64 ) ) ;
#6 = APPROVAL ( #71, 'UNSPECIFIED' ) ;
#7 =( GEOMETRIC_REPRESENTATION_CONTEXT ( 3 ) GLOBAL_UNCERTAINTY_ASSIGNED_CONTEXT ( ( #156 ) ) GLOBAL_UNIT_ASSIGNED_CONTEXT ( ( #101, #43, #57 ) ) REPRESENTATION_CONTEXT ( 'NONE', 'WORKASPACE' ) );
#8 = APPLICATION_CONTEXT ( 'configuration controlled 3d designs of mechanical parts and assemblies' ) ;
#9 = CC_DESIGN_SECURITY_CLASSIFICATION ( #171, ( #36 ) ) ;
#10 = DIRECTION ( 'NONE',  ( 1.000000000000000000, 0.0000000000000000000, 0.0000000000000000000 ) ) ;
#11 = PERSON_AND_ORGANIZATION ( #33, #122 ) ;
#12 = SHAPE_DEFINITION_REPRESENTATION ( #133, #104 ) ;
#13 = DATE_TIME_ROLE ( 'classification_date' ) ;
#14 = CIRCLE ( 'NONE', #142, 15.00000000000000000 ) ;
#15 = APPROVAL_PERSON_ORGANIZATION ( #146, #125, #120 ) ;
#16 = EDGE_CURVE ( 'NONE', #134, #139, #78, .T. ) ;
#17 = CIRCLE ( 'NONE', #38, 15.00000000000000000 ) ;
#18 = AXIS2_PLACEMENT_3D ( 'NONE', #44, #131, #106 ) ;
#19 = ORIENTED_EDGE ( 'NONE', *, *, #86, .F. ) ;
#20 = COORDINATED_UNIVERSAL_TIME_OFFSET ( 5, 0, .BEHIND. ) ;
#21 = EDGE_CURVE ( 'NONE', #169, #109, #83, .T. ) ;
#22 = ORIENTED_EDGE ( 'NONE', *, *, #32, .T. ) ;
#23 = CC_DESIGN_PERSON_AND_ORGANIZATION_ASSIGNMENT ( #11, #118, ( #100 ) ) ;
#24 = DIRECTION ( 'NONE',  ( 0.0000000000000000000, 0.0000000000000000000, 1.000000000000000000 ) ) ;
#25 = AXIS2_PLACEMENT_3D ( 'NONE', #173, #160, #67 ) ;
#26 = PLANE ( 'NONE',  #18 ) ;
#27 = DIRECTION ( 'NONE',  ( 1.000000000000000000, 0.0000000000000000000, -0.0000000000000000000 ) ) ;
#28 = DIRECTION ( 'NONE',  ( 1.000000000000000000, 0.0000000000000000000, 0.0000000000000000000 ) ) ;
#29 = MECHANICAL_CONTEXT ( 'NONE', #8, 'mechanical' ) ;
#30 = FACE_OUTER_BOUND ( 'NONE', #55, .T. ) ;
#31 = MANIFOLD_SOLID_BREP ( 'Extrude1', #5 ) ;
#32 = EDGE_CURVE ( 'NONE', #139, #134, #17, .T. ) ;
#33 = PERSON ( 'UNSPECIFIED', 'UNSPECIFIED', 'UNSPECIFIED', ('UNSPECIFIED'), ('UNSPECIFIED'), ('UNSPECIFIED') ) ;
#34 = EDGE_LOOP ( 'NONE', ( #70, #113, #75, #19 ) ) ;
#35 = ADVANCED_FACE ( 'NONE', ( #85 ), #47, .T. ) ;
#36 = PRODUCT_DEFINITION_FORMATION_WITH_SPECIFIED_SOURCE ( 'ANY', '', #167, .NOT_KNOWN. ) ;
#37 = PERSON_AND_ORGANIZATION ( #33, #122 ) ;
#38 = AXIS2_PLACEMENT_3D ( 'NONE', #46, #129, #68 ) ;
#39 = CALENDAR_DATE ( 2017, 31, 1 ) ;
#40 = APPROVAL_DATE_TIME ( #63, #125 ) ;
#41 = DIRECTION ( 'NONE',  ( 0.0000000000000000000, 0.0000000000000000000, 1.000000000000000000 ) ) ;
#42 = EDGE_LOOP ( 'NONE', ( #143, #53 ) ) ;
#43 =( NAMED_UNIT ( * ) PLANE_ANGLE_UNIT ( ) SI_UNIT ( $, .RADIAN. ) );
#44 = CARTESIAN_POINT ( 'NONE',  ( 0.0000000000000000000, 0.0000000000000000000, -4.000000000000000000 ) ) ;
#45 = AXIS2_PLACEMENT_3D ( 'NONE', #76, #24, #28 ) ;
#46 = CARTESIAN_POINT ( 'NONE',  ( 0.0000000000000000000, 0.0000000000000000000, 0.0000000000000000000 ) ) ;
#47 = CYLINDRICAL_SURFACE ( 'NONE', #45, 15.00000000000000000 ) ;
#48 = AXIS2_PLACEMENT_3D ( 'NONE', #149, #135, #108 ) ;
#49 = PERSON_AND_ORGANIZATION_ROLE ( 'design_supplier' ) ;
#50 = SECURITY_CLASSIFICATION_LEVEL ( 'unclassified' ) ;
#51 = PERSON_AND_ORGANIZATION ( #33, #122 ) ;
#52 = COORDINATED_UNIVERSAL_TIME_OFFSET ( 5, 0, .BEHIND. ) ;
#53 = ORIENTED_EDGE ( 'NONE', *, *, #21, .F. ) ;
#54 = CC_DESIGN_APPROVAL ( #152, ( #100 ) ) ;
#55 = EDGE_LOOP ( 'NONE', ( #166, #81, #107, #157 ) ) ;
#56 = APPROVAL_DATE_TIME ( #87, #152 ) ;
#57 =( NAMED_UNIT ( * ) SI_UNIT ( $, .STERADIAN. ) SOLID_ANGLE_UNIT ( ) );
#58 = DIRECTION ( 'NONE',  ( 1.000000000000000000, 0.0000000000000000000, 0.0000000000000000000 ) ) ;
#59 = CARTESIAN_POINT ( 'NONE',  ( 0.0000000000000000000, 0.0000000000000000000, -4.000000000000000000 ) ) ;
#60 = APPROVAL_STATUS ( 'not_yet_approved' ) ;
#61 = CC_DESIGN_DATE_AND_TIME_ASSIGNMENT ( #102, #69, ( #100 ) ) ;
#62 = APPLICATION_CONTEXT ( 'configuration controlled 3d designs of mechanical parts and assemblies' ) ;
#63 = DATE_AND_TIME ( #89, #124 ) ;
#64 = ADVANCED_FACE ( 'NONE', ( #96 ), #105, .T. ) ;
#65 = LINE ( 'NONE', #145, #121 ) ;
#66 = APPROVAL_DATE_TIME ( #1, #6 ) ;
#67 = DIRECTION ( 'NONE',  ( 1.000000000000000000, 0.0000000000000000000, 0.0000000000000000000 ) ) ;
#68 = DIRECTION ( 'NONE',  ( 1.000000000000000000, 0.0000000000000000000, 0.0000000000000000000 ) ) ;
#69 = DATE_TIME_ROLE ( 'creation_date' ) ;
#70 = ORIENTED_EDGE ( 'NONE', *, *, #3, .T. ) ;
#71 = APPROVAL_STATUS ( 'not_yet_approved' ) ;
#72 = APPROVAL_PERSON_ORGANIZATION ( #37, #6, #164 ) ;
#73 = CC_DESIGN_APPROVAL ( #6, ( #36 ) ) ;
#74 = ORIENTED_EDGE ( 'NONE', *, *, #16, .T. ) ;
#75 = ORIENTED_EDGE ( 'NONE', *, *, #16, .F. ) ;
#76 = CARTESIAN_POINT ( 'NONE',  ( 0.0000000000000000000, 0.0000000000000000000, -4.000000000000000000 ) ) ;
#77 = CARTESIAN_POINT ( 'NONE',  ( -15.00000000000000000, 1.836970198721029600E-015, -4.000000000000000000 ) ) ;
#78 = CIRCLE ( 'NONE', #25, 15.00000000000000000 ) ;
#79 = PERSON_AND_ORGANIZATION_ROLE ( 'design_owner' ) ;
#80 = CC_DESIGN_PERSON_AND_ORGANIZATION_ASSIGNMENT ( #82, #49, ( #36 ) ) ;
#81 = ORIENTED_EDGE ( 'NONE', *, *, #21, .T. ) ;
#82 = PERSON_AND_ORGANIZATION ( #33, #122 ) ;
#83 = CIRCLE ( 'NONE', #162, 15.00000000000000000 ) ;
#84 = ADVANCED_FACE ( 'NONE', ( #88 ), #26, .F. ) ;
#85 = FACE_OUTER_BOUND ( 'NONE', #34, .T. ) ;
#86 = EDGE_CURVE ( 'NONE', #109, #134, #65, .T. ) ;
#87 = DATE_AND_TIME ( #39, #161 ) ;
#88 = FACE_OUTER_BOUND ( 'NONE', #42, .T. ) ;
#89 = CALENDAR_DATE ( 2017, 31, 1 ) ;
#90 = DIRECTION ( 'NONE',  ( 0.0000000000000000000, 0.0000000000000000000, 1.000000000000000000 ) ) ;
#91 = CARTESIAN_POINT ( 'NONE',  ( 0.0000000000000000000, 0.0000000000000000000, 0.0000000000000000000 ) ) ;
#92 = DIRECTION ( 'NONE',  ( 0.0000000000000000000, 0.0000000000000000000, 1.000000000000000000 ) ) ;
#93 = DIRECTION ( 'NONE',  ( 1.000000000000000000, 0.0000000000000000000, 0.0000000000000000000 ) ) ;
#94 = CC_DESIGN_PERSON_AND_ORGANIZATION_ASSIGNMENT ( #51, #79, ( #167 ) ) ;
#95 = APPLICATION_PROTOCOL_DEFINITION ( 'international standard', 'config_control_design', 1994, #62 ) ;
#96 = FACE_OUTER_BOUND ( 'NONE', #99, .T. ) ;
#97 = COORDINATED_UNIVERSAL_TIME_OFFSET ( 5, 0, .BEHIND. ) ;
#98 = CALENDAR_DATE ( 2017, 31, 1 ) ;
#99 = EDGE_LOOP ( 'NONE', ( #74, #22 ) ) ;
#100 = PRODUCT_DEFINITION ( 'UNKNOWN', '', #36, #148 ) ;
#101 =( LENGTH_UNIT ( ) NAMED_UNIT ( * ) SI_UNIT ( .MILLI., .METRE. ) );
#102 = DATE_AND_TIME ( #140, #112 ) ;
#103 = APPLICATION_PROTOCOL_DEFINITION ( 'international standard', 'config_control_design', 1994, #8 ) ;
#104 = ADVANCED_BREP_SHAPE_REPRESENTATION ( 'Web Model 48445', ( #31, #48 ), #7 ) ;
#105 = PLANE ( 'NONE',  #119 ) ;
#106 = DIRECTION ( 'NONE',  ( 1.000000000000000000, 0.0000000000000000000, -0.0000000000000000000 ) ) ;
#107 = ORIENTED_EDGE ( 'NONE', *, *, #86, .T. ) ;
#108 = DIRECTION ( 'NONE',  ( 1.000000000000000000, 0.0000000000000000000, 0.0000000000000000000 ) ) ;
#109 = VERTEX_POINT ( 'NONE', #116 ) ;
#110 = CYLINDRICAL_SURFACE ( 'NONE', #158, 15.00000000000000000 ) ;
#111 = CC_DESIGN_PERSON_AND_ORGANIZATION_ASSIGNMENT ( #168, #132, ( #171 ) ) ;
#112 = LOCAL_TIME ( 10, 21, 21.00000000000000000, #155 ) ;
#113 = ORIENTED_EDGE ( 'NONE', *, *, #165, .T. ) ;
#114 = CARTESIAN_POINT ( 'NONE',  ( -15.00000000000000000, 1.836970198721029600E-015, 0.0000000000000000000 ) ) ;
#115 = CARTESIAN_POINT ( 'NONE',  ( 0.0000000000000000000, 0.0000000000000000000, -4.000000000000000000 ) ) ;
#116 = CARTESIAN_POINT ( 'NONE',  ( 15.00000000000000000, 0.0000000000000000000, -4.000000000000000000 ) ) ;
#117 = DIRECTION ( 'NONE',  ( 0.0000000000000000000, 0.0000000000000000000, 1.000000000000000000 ) ) ;
#118 = PERSON_AND_ORGANIZATION_ROLE ( 'creator' ) ;
#119 = AXIS2_PLACEMENT_3D ( 'NONE', #91, #117, #27 ) ;
#120 = APPROVAL_ROLE ( '' ) ;
#121 = VECTOR ( 'NONE', #147, 1000.000000000000000 ) ;
#122 = ORGANIZATION ( 'UNSPECIFIED', 'UNSPECIFIED', '' ) ;
#123 = ADVANCED_FACE ( 'NONE', ( #30 ), #110, .T. ) ;
#124 = LOCAL_TIME ( 10, 21, 21.00000000000000000, #97 ) ;
#125 = APPROVAL ( #60, 'UNSPECIFIED' ) ;
#126 = LINE ( 'NONE', #77, #154 ) ;
#127 = LOCAL_TIME ( 10, 21, 21.00000000000000000, #52 ) ;
#128 = CARTESIAN_POINT ( 'NONE',  ( 15.00000000000000000, 0.0000000000000000000, 0.0000000000000000000 ) ) ;
#129 = DIRECTION ( 'NONE',  ( 0.0000000000000000000, 0.0000000000000000000, 1.000000000000000000 ) ) ;
#130 = CARTESIAN_POINT ( 'NONE',  ( 0.0000000000000000000, 0.0000000000000000000, -4.000000000000000000 ) ) ;
#131 = DIRECTION ( 'NONE',  ( 0.0000000000000000000, 0.0000000000000000000, 1.000000000000000000 ) ) ;
#132 = PERSON_AND_ORGANIZATION_ROLE ( 'classification_officer' ) ;
#133 = PRODUCT_DEFINITION_SHAPE ( 'NONE', 'NONE',  #100 ) ;
#134 = VERTEX_POINT ( 'NONE', #128 ) ;
#135 = DIRECTION ( 'NONE',  ( 0.0000000000000000000, 0.0000000000000000000, 1.000000000000000000 ) ) ;
#136 = DATE_AND_TIME ( #4, #127 ) ;
#137 = LOCAL_TIME ( 10, 21, 21.00000000000000000, #172 ) ;
#138 = CC_DESIGN_APPROVAL ( #125, ( #171 ) ) ;
#139 = VERTEX_POINT ( 'NONE', #114 ) ;
#140 = CALENDAR_DATE ( 2017, 31, 1 ) ;
#141 = CC_DESIGN_DATE_AND_TIME_ASSIGNMENT ( #136, #13, ( #171 ) ) ;
#142 = AXIS2_PLACEMENT_3D ( 'NONE', #115, #174, #58 ) ;
#143 = ORIENTED_EDGE ( 'NONE', *, *, #3, .F. ) ;
#144 = APPROVAL_PERSON_ORGANIZATION ( #2, #152, #153 ) ;
#145 = CARTESIAN_POINT ( 'NONE',  ( 15.00000000000000000, 0.0000000000000000000, -4.000000000000000000 ) ) ;
#146 = PERSON_AND_ORGANIZATION ( #33, #122 ) ;
#147 = DIRECTION ( 'NONE',  ( 0.0000000000000000000, 0.0000000000000000000, 1.000000000000000000 ) ) ;
#148 = DESIGN_CONTEXT ( 'detailed design', #62, 'design' ) ;
#149 = CARTESIAN_POINT ( 'NONE',  ( 0.0000000000000000000, 0.0000000000000000000, 0.0000000000000000000 ) ) ;
#150 = CC_DESIGN_PERSON_AND_ORGANIZATION_ASSIGNMENT ( #170, #175, ( #36 ) ) ;
#151 = APPROVAL_STATUS ( 'not_yet_approved' ) ;
#152 = APPROVAL ( #151, 'UNSPECIFIED' ) ;
#153 = APPROVAL_ROLE ( '' ) ;
#154 = VECTOR ( 'NONE', #41, 1000.000000000000000 ) ;
#155 = COORDINATED_UNIVERSAL_TIME_OFFSET ( 5, 0, .BEHIND. ) ;
#156 = UNCERTAINTY_MEASURE_WITH_UNIT (LENGTH_MEASURE( 1.000000000000000100E-005 ), #101, 'distance_accuracy_value', 'NONE');
#157 = ORIENTED_EDGE ( 'NONE', *, *, #32, .F. ) ;
#158 = AXIS2_PLACEMENT_3D ( 'NONE', #59, #92, #10 ) ;
#159 = PRODUCT_RELATED_PRODUCT_CATEGORY ( 'detail', '', ( #167 ) ) ;
#160 = DIRECTION ( 'NONE',  ( 0.0000000000000000000, 0.0000000000000000000, 1.000000000000000000 ) ) ;
#161 = LOCAL_TIME ( 10, 21, 21.00000000000000000, #20 ) ;
#162 = AXIS2_PLACEMENT_3D ( 'NONE', #130, #90, #93 ) ;
#163 = CARTESIAN_POINT ( 'NONE',  ( -15.00000000000000000, 1.836970198721029600E-015, -4.000000000000000000 ) ) ;
#164 = APPROVAL_ROLE ( '' ) ;
#165 = EDGE_CURVE ( 'NONE', #169, #139, #126, .T. ) ;
#166 = ORIENTED_EDGE ( 'NONE', *, *, #165, .F. ) ;
#167 = PRODUCT ( 'Web Model 48445', 'Web Model 48445', '', ( #29 ) ) ;
#168 = PERSON_AND_ORGANIZATION ( #33, #122 ) ;
#169 = VERTEX_POINT ( 'NONE', #163 ) ;
#170 = PERSON_AND_ORGANIZATION ( #33, #122 ) ;
#171 = SECURITY_CLASSIFICATION ( '', '', #50 ) ;
#172 = COORDINATED_UNIVERSAL_TIME_OFFSET ( 5, 0, .BEHIND. ) ;
#173 = CARTESIAN_POINT ( 'NONE',  ( 0.0000000000000000000, 0.0000000000000000000, 0.0000000000000000000 ) ) ;
#174 = DIRECTION ( 'NONE',  ( 0.0000000000000000000, 0.0000000000000000000, 1.000000000000000000 ) ) ;
#175 = PERSON_AND_ORGANIZATION_ROLE ( 'creator' ) ;
ENDSEC;
END-ISO-10303-21;
