ISO-10303-21;
HEADER;
FILE_DESCRIPTION (( 'STEP AP203' ),
    '1' );
FILE_NAME ('Web Model 11864_11864.step',
    '2019-01-03T21:49:11',
    ( '' ),
    ( '' ),
    'SwSTEP 2.0',
    'SolidWorks 2016',
    '' );
FILE_SCHEMA (( 'CONFIG_CONTROL_DESIGN' ));
ENDSEC;

DATA;
#1 = APPLICATION_PROTOCOL_DEFINITION ( 'international standard', 'config_control_design', 1994, #68 ) ;
#2 = PERSON_AND_ORGANIZATION ( #101, #18 ) ;
#3 = MECHANICAL_CONTEXT ( 'NONE', #68, 'mechanical' ) ;
#4 = AXIS2_PLACEMENT_3D ( 'NONE', #81, #95, #143 ) ;
#5 = APPROVAL_STATUS ( 'not_yet_approved' ) ;
#6 = ORIENTED_EDGE ( 'NONE', *, *, #90, .T. ) ;
#7 = PRODUCT_DEFINITION_FORMATION_WITH_SPECIFIED_SOURCE ( 'ANY', '', #76, .NOT_KNOWN. ) ;
#8 = LOCAL_TIME ( 16, 49, 11.00000000000000000, #173 ) ;
#9 = EDGE_CURVE ( 'NONE', #50, #77, #93, .T. ) ;
#10 = COORDINATED_UNIVERSAL_TIME_OFFSET ( 5, 0, .BEHIND. ) ;
#11 = DIRECTION ( 'NONE',  ( 0.0000000000000000000, 0.0000000000000000000, 1.000000000000000000 ) ) ;
#12 = CARTESIAN_POINT ( 'NONE',  ( 0.0000000000000000000, 0.0000000000000000000, 2.500000000000000000 ) ) ;
#13 = LOCAL_TIME ( 16, 49, 11.00000000000000000, #42 ) ;
#14 = CYLINDRICAL_SURFACE ( 'NONE', #91, 38.10000000000000100 ) ;
#15 = CALENDAR_DATE ( 2019, 3, 1 ) ;
#16 = PERSON_AND_ORGANIZATION_ROLE ( 'classification_officer' ) ;
#17 = PERSON_AND_ORGANIZATION_ROLE ( 'design_supplier' ) ;
#18 = ORGANIZATION ( 'UNSPECIFIED', 'UNSPECIFIED', '' ) ;
#19 = CYLINDRICAL_SURFACE ( 'NONE', #170, 38.10000000000000100 ) ;
#20 =( NAMED_UNIT ( * ) PLANE_ANGLE_UNIT ( ) SI_UNIT ( $, .RADIAN. ) );
#21 = FACE_OUTER_BOUND ( 'NONE', #135, .T. ) ;
#22 = LOCAL_TIME ( 16, 49, 11.00000000000000000, #84 ) ;
#23 = CC_DESIGN_APPROVAL ( #157, ( #7 ) ) ;
#24 = APPROVAL_PERSON_ORGANIZATION ( #78, #132, #105 ) ;
#25 = ORIENTED_EDGE ( 'NONE', *, *, #53, .T. ) ;
#26 = ADVANCED_FACE ( 'NONE', ( #21 ), #19, .T. ) ;
#27 = CARTESIAN_POINT ( 'NONE',  ( 38.10000000000000100, 4.665904304751416100E-015, 2.500000000000000000 ) ) ;
#28 = ORIENTED_EDGE ( 'NONE', *, *, #9, .T. ) ;
#29 = DIRECTION ( 'NONE',  ( 0.0000000000000000000, 0.0000000000000000000, 1.000000000000000000 ) ) ;
#30 = DATE_TIME_ROLE ( 'classification_date' ) ;
#31 = SECURITY_CLASSIFICATION_LEVEL ( 'unclassified' ) ;
#32 = CLOSED_SHELL ( 'NONE', ( #129, #26, #67, #142 ) ) ;
#33 = CIRCLE ( 'NONE', #40, 38.10000000000000100 ) ;
#34 = EDGE_CURVE ( 'NONE', #50, #62, #97, .T. ) ;
#35 = ORIENTED_EDGE ( 'NONE', *, *, #90, .F. ) ;
#36 = CALENDAR_DATE ( 2019, 3, 1 ) ;
#37 = CARTESIAN_POINT ( 'NONE',  ( 0.0000000000000000000, 0.0000000000000000000, -2.500000000000000000 ) ) ;
#38 = ORIENTED_EDGE ( 'NONE', *, *, #123, .F. ) ;
#39 = PERSON_AND_ORGANIZATION_ROLE ( 'creator' ) ;
#40 = AXIS2_PLACEMENT_3D ( 'NONE', #98, #115, #164 ) ;
#41 = DESIGN_CONTEXT ( 'detailed design', #155, 'design' ) ;
#42 = COORDINATED_UNIVERSAL_TIME_OFFSET ( 5, 0, .BEHIND. ) ;
#43 = APPROVAL_STATUS ( 'not_yet_approved' ) ;
#44 = DATE_AND_TIME ( #83, #57 ) ;
#45 = VERTEX_POINT ( 'NONE', #138 ) ;
#46 = EDGE_CURVE ( 'NONE', #45, #77, #111, .T. ) ;
#47 = DIRECTION ( 'NONE',  ( -0.0000000000000000000, -0.0000000000000000000, -1.000000000000000000 ) ) ;
#48 = CARTESIAN_POINT ( 'NONE',  ( 0.0000000000000000000, 0.0000000000000000000, 2.500000000000000000 ) ) ;
#49 = APPROVAL_PERSON_ORGANIZATION ( #122, #108, #104 ) ;
#50 = VERTEX_POINT ( 'NONE', #27 ) ;
#51 = CARTESIAN_POINT ( 'NONE',  ( 0.0000000000000000000, 0.0000000000000000000, 2.500000000000000000 ) ) ;
#52 = DIRECTION ( 'NONE',  ( 1.000000000000000000, 0.0000000000000000000, 0.0000000000000000000 ) ) ;
#53 = EDGE_CURVE ( 'NONE', #62, #45, #73, .T. ) ;
#54 = DIRECTION ( 'NONE',  ( 1.000000000000000000, 0.0000000000000000000, 0.0000000000000000000 ) ) ;
#55 = UNCERTAINTY_MEASURE_WITH_UNIT (LENGTH_MEASURE( 1.000000000000000100E-005 ), #87, 'distance_accuracy_value', 'NONE');
#56 = VECTOR ( 'NONE', #136, 1000.000000000000000 ) ;
#57 = LOCAL_TIME ( 16, 49, 11.00000000000000000, #89 ) ;
#58 = ORIENTED_EDGE ( 'NONE', *, *, #9, .F. ) ;
#59 =( GEOMETRIC_REPRESENTATION_CONTEXT ( 3 ) GLOBAL_UNCERTAINTY_ASSIGNED_CONTEXT ( ( #55 ) ) GLOBAL_UNIT_ASSIGNED_CONTEXT ( ( #87, #20, #72 ) ) REPRESENTATION_CONTEXT ( 'NONE', 'WORKASPACE' ) );
#60 = ORIENTED_EDGE ( 'NONE', *, *, #34, .F. ) ;
#61 = AXIS2_PLACEMENT_3D ( 'NONE', #12, #29, #125 ) ;
#62 = VERTEX_POINT ( 'NONE', #162 ) ;
#63 = DIRECTION ( 'NONE',  ( -0.0000000000000000000, -0.0000000000000000000, -1.000000000000000000 ) ) ;
#64 = DIRECTION ( 'NONE',  ( 1.000000000000000000, 0.0000000000000000000, 0.0000000000000000000 ) ) ;
#65 = CARTESIAN_POINT ( 'NONE',  ( -38.10000000000000100, 0.0000000000000000000, 2.500000000000000000 ) ) ;
#66 = CARTESIAN_POINT ( 'NONE',  ( 0.0000000000000000000, 0.0000000000000000000, 0.0000000000000000000 ) ) ;
#67 = ADVANCED_FACE ( 'NONE', ( #70 ), #153, .T. ) ;
#68 = APPLICATION_CONTEXT ( 'configuration controlled 3d designs of mechanical parts and assemblies' ) ;
#69 = CC_DESIGN_PERSON_AND_ORGANIZATION_ASSIGNMENT ( #147, #120, ( #76 ) ) ;
#70 = FACE_OUTER_BOUND ( 'NONE', #166, .T. ) ;
#71 = APPLICATION_PROTOCOL_DEFINITION ( 'international standard', 'config_control_design', 1994, #155 ) ;
#72 =( NAMED_UNIT ( * ) SI_UNIT ( $, .STERADIAN. ) SOLID_ANGLE_UNIT ( ) );
#73 = LINE ( 'NONE', #65, #56 ) ;
#74 = AXIS2_PLACEMENT_3D ( 'NONE', #66, #144, #54 ) ;
#75 = ADVANCED_BREP_SHAPE_REPRESENTATION ( 'Web Model 11864_11864', ( #139, #74 ), #59 ) ;
#76 = PRODUCT ( 'Web Model 11864_11864', 'Web Model 11864_11864', '', ( #3 ) ) ;
#77 = VERTEX_POINT ( 'NONE', #165 ) ;
#78 = PERSON_AND_ORGANIZATION ( #101, #18 ) ;
#79 = DATE_AND_TIME ( #36, #8 ) ;
#80 = CC_DESIGN_DATE_AND_TIME_ASSIGNMENT ( #174, #117, ( #100 ) ) ;
#81 = CARTESIAN_POINT ( 'NONE',  ( 0.0000000000000000000, 0.0000000000000000000, -2.500000000000000000 ) ) ;
#82 = DIRECTION ( 'NONE',  ( 0.0000000000000000000, 0.0000000000000000000, 1.000000000000000000 ) ) ;
#83 = CALENDAR_DATE ( 2019, 3, 1 ) ;
#84 = COORDINATED_UNIVERSAL_TIME_OFFSET ( 5, 0, .BEHIND. ) ;
#85 = DIRECTION ( 'NONE',  ( -1.000000000000000000, 0.0000000000000000000, 0.0000000000000000000 ) ) ;
#86 = CC_DESIGN_APPROVAL ( #108, ( #100 ) ) ;
#87 =( LENGTH_UNIT ( ) NAMED_UNIT ( * ) SI_UNIT ( .MILLI., .METRE. ) );
#88 = PERSON_AND_ORGANIZATION ( #101, #18 ) ;
#89 = COORDINATED_UNIVERSAL_TIME_OFFSET ( 5, 0, .BEHIND. ) ;
#90 = EDGE_CURVE ( 'NONE', #77, #45, #126, .T. ) ;
#91 = AXIS2_PLACEMENT_3D ( 'NONE', #51, #128, #85 ) ;
#92 = AXIS2_PLACEMENT_3D ( 'NONE', #152, #11, #64 ) ;
#93 = LINE ( 'NONE', #140, #149 ) ;
#94 = CC_DESIGN_PERSON_AND_ORGANIZATION_ASSIGNMENT ( #145, #39, ( #7 ) ) ;
#95 = DIRECTION ( 'NONE',  ( 0.0000000000000000000, 0.0000000000000000000, 1.000000000000000000 ) ) ;
#96 = CALENDAR_DATE ( 2019, 3, 1 ) ;
#97 = CIRCLE ( 'NONE', #107, 38.10000000000000100 ) ;
#98 = CARTESIAN_POINT ( 'NONE',  ( 0.0000000000000000000, 0.0000000000000000000, 2.500000000000000000 ) ) ;
#99 = DIRECTION ( 'NONE',  ( -1.000000000000000000, 0.0000000000000000000, 0.0000000000000000000 ) ) ;
#100 = PRODUCT_DEFINITION ( 'UNKNOWN', '', #7, #41 ) ;
#101 = PERSON ( 'UNSPECIFIED', 'UNSPECIFIED', 'UNSPECIFIED', ('UNSPECIFIED'), ('UNSPECIFIED'), ('UNSPECIFIED') ) ;
#102 = CC_DESIGN_PERSON_AND_ORGANIZATION_ASSIGNMENT ( #2, #16, ( #172 ) ) ;
#103 = EDGE_LOOP ( 'NONE', ( #110, #35 ) ) ;
#104 = APPROVAL_ROLE ( '' ) ;
#105 = APPROVAL_ROLE ( '' ) ;
#106 = DATE_AND_TIME ( #15, #118 ) ;
#107 = AXIS2_PLACEMENT_3D ( 'NONE', #112, #82, #113 ) ;
#108 = APPROVAL ( #167, 'UNSPECIFIED' ) ;
#109 = PERSON_AND_ORGANIZATION ( #101, #18 ) ;
#110 = ORIENTED_EDGE ( 'NONE', *, *, #46, .F. ) ;
#111 = CIRCLE ( 'NONE', #160, 38.10000000000000100 ) ;
#112 = CARTESIAN_POINT ( 'NONE',  ( 0.0000000000000000000, 0.0000000000000000000, 2.500000000000000000 ) ) ;
#113 = DIRECTION ( 'NONE',  ( 1.000000000000000000, 0.0000000000000000000, 0.0000000000000000000 ) ) ;
#114 = SHAPE_DEFINITION_REPRESENTATION ( #169, #75 ) ;
#115 = DIRECTION ( 'NONE',  ( 0.0000000000000000000, 0.0000000000000000000, 1.000000000000000000 ) ) ;
#116 = CC_DESIGN_PERSON_AND_ORGANIZATION_ASSIGNMENT ( #109, #17, ( #7 ) ) ;
#117 = DATE_TIME_ROLE ( 'creation_date' ) ;
#118 = LOCAL_TIME ( 16, 49, 11.00000000000000000, #10 ) ;
#119 = APPROVAL_ROLE ( '' ) ;
#120 = PERSON_AND_ORGANIZATION_ROLE ( 'design_owner' ) ;
#121 = CC_DESIGN_APPROVAL ( #132, ( #172 ) ) ;
#122 = PERSON_AND_ORGANIZATION ( #101, #18 ) ;
#123 = EDGE_CURVE ( 'NONE', #62, #50, #33, .T. ) ;
#124 = APPROVAL_DATE_TIME ( #106, #132 ) ;
#125 = DIRECTION ( 'NONE',  ( 1.000000000000000000, 0.0000000000000000000, -0.0000000000000000000 ) ) ;
#126 = CIRCLE ( 'NONE', #92, 38.10000000000000100 ) ;
#127 = PRODUCT_RELATED_PRODUCT_CATEGORY ( 'detail', '', ( #76 ) ) ;
#128 = DIRECTION ( 'NONE',  ( -0.0000000000000000000, -0.0000000000000000000, -1.000000000000000000 ) ) ;
#129 = ADVANCED_FACE ( 'NONE', ( #146 ), #14, .T. ) ;
#130 = APPROVAL_DATE_TIME ( #156, #157 ) ;
#131 = EDGE_LOOP ( 'NONE', ( #60, #28, #6, #134 ) ) ;
#132 = APPROVAL ( #43, 'UNSPECIFIED' ) ;
#133 = PERSON_AND_ORGANIZATION ( #101, #18 ) ;
#134 = ORIENTED_EDGE ( 'NONE', *, *, #53, .F. ) ;
#135 = EDGE_LOOP ( 'NONE', ( #58, #38, #25, #168 ) ) ;
#136 = DIRECTION ( 'NONE',  ( -0.0000000000000000000, -0.0000000000000000000, -1.000000000000000000 ) ) ;
#137 = DIRECTION ( 'NONE',  ( 0.0000000000000000000, 0.0000000000000000000, 1.000000000000000000 ) ) ;
#138 = CARTESIAN_POINT ( 'NONE',  ( -38.10000000000000100, 0.0000000000000000000, -2.500000000000000000 ) ) ;
#139 = MANIFOLD_SOLID_BREP ( 'Boss-Extrude1', #32 ) ;
#140 = CARTESIAN_POINT ( 'NONE',  ( 38.10000000000000100, 4.665904304751416100E-015, 2.500000000000000000 ) ) ;
#141 = CC_DESIGN_DATE_AND_TIME_ASSIGNMENT ( #44, #30, ( #172 ) ) ;
#142 = ADVANCED_FACE ( 'NONE', ( #171 ), #175, .F. ) ;
#143 = DIRECTION ( 'NONE',  ( 1.000000000000000000, 0.0000000000000000000, -0.0000000000000000000 ) ) ;
#144 = DIRECTION ( 'NONE',  ( 0.0000000000000000000, 0.0000000000000000000, 1.000000000000000000 ) ) ;
#145 = PERSON_AND_ORGANIZATION ( #101, #18 ) ;
#146 = FACE_OUTER_BOUND ( 'NONE', #131, .T. ) ;
#147 = PERSON_AND_ORGANIZATION ( #101, #18 ) ;
#148 = CC_DESIGN_SECURITY_CLASSIFICATION ( #172, ( #7 ) ) ;
#149 = VECTOR ( 'NONE', #63, 1000.000000000000000 ) ;
#150 = CC_DESIGN_PERSON_AND_ORGANIZATION_ASSIGNMENT ( #133, #154, ( #100 ) ) ;
#151 = CALENDAR_DATE ( 2019, 3, 1 ) ;
#152 = CARTESIAN_POINT ( 'NONE',  ( 0.0000000000000000000, 0.0000000000000000000, -2.500000000000000000 ) ) ;
#153 = PLANE ( 'NONE',  #61 ) ;
#154 = PERSON_AND_ORGANIZATION_ROLE ( 'creator' ) ;
#155 = APPLICATION_CONTEXT ( 'configuration controlled 3d designs of mechanical parts and assemblies' ) ;
#156 = DATE_AND_TIME ( #151, #13 ) ;
#157 = APPROVAL ( #5, 'UNSPECIFIED' ) ;
#158 = APPROVAL_DATE_TIME ( #79, #108 ) ;
#159 = ORIENTED_EDGE ( 'NONE', *, *, #123, .T. ) ;
#160 = AXIS2_PLACEMENT_3D ( 'NONE', #37, #137, #52 ) ;
#161 = APPROVAL_PERSON_ORGANIZATION ( #88, #157, #119 ) ;
#162 = CARTESIAN_POINT ( 'NONE',  ( -38.10000000000000100, 0.0000000000000000000, 2.500000000000000000 ) ) ;
#163 = ORIENTED_EDGE ( 'NONE', *, *, #34, .T. ) ;
#164 = DIRECTION ( 'NONE',  ( 1.000000000000000000, 0.0000000000000000000, 0.0000000000000000000 ) ) ;
#165 = CARTESIAN_POINT ( 'NONE',  ( 38.10000000000000100, 4.665904304751416100E-015, -2.500000000000000000 ) ) ;
#166 = EDGE_LOOP ( 'NONE', ( #159, #163 ) ) ;
#167 = APPROVAL_STATUS ( 'not_yet_approved' ) ;
#168 = ORIENTED_EDGE ( 'NONE', *, *, #46, .T. ) ;
#169 = PRODUCT_DEFINITION_SHAPE ( 'NONE', 'NONE',  #100 ) ;
#170 = AXIS2_PLACEMENT_3D ( 'NONE', #48, #47, #99 ) ;
#171 = FACE_OUTER_BOUND ( 'NONE', #103, .T. ) ;
#172 = SECURITY_CLASSIFICATION ( '', '', #31 ) ;
#173 = COORDINATED_UNIVERSAL_TIME_OFFSET ( 5, 0, .BEHIND. ) ;
#174 = DATE_AND_TIME ( #96, #22 ) ;
#175 = PLANE ( 'NONE',  #4 ) ;
ENDSEC;
END-ISO-10303-21;
