ISO-10303-21;
HEADER;
FILE_DESCRIPTION (( 'STEP AP203' ),
    '1' );
FILE_NAME ('TTN162579-E0W.STEP',
    '2019-10-24T13:58:16',
    ( '' ),
    ( '' ),
    'SwSTEP 2.0',
    'SolidWorks 2018',
    '' );
FILE_SCHEMA (( 'CONFIG_CONTROL_DESIGN' ));
ENDSEC;

DATA;
#1 = PRODUCT_DEFINITION_SHAPE ( 'NONE', 'NONE',  #260 ) ;
#2 = CALENDAR_DATE ( 2019, 24, 10 ) ;
#3 = ORIENTED_EDGE ( 'NONE', *, *, #256, .T. ) ;
#4 = AXIS2_PLACEMENT_3D ( 'NONE', #153, #76, #101 ) ;
#5 = FACE_OUTER_BOUND ( 'NONE', #65, .T. ) ;
#6 = DIRECTION ( 'NONE',  ( 0.0000000000000000000, 1.000000000000000000, 2.168404344971008868E-16 ) ) ;
#7 = PERSON_AND_ORGANIZATION ( #94, #274 ) ;
#8 = DIRECTION ( 'NONE',  ( 0.0000000000000000000, 1.000000000000000000, 2.168404344971008868E-16 ) ) ;
#9 = AXIS2_PLACEMENT_3D ( 'NONE', #32, #157, #34 ) ;
#10 = ORIENTED_EDGE ( 'NONE', *, *, #188, .F. ) ;
#11 = APPROVAL ( #73, 'UNSPECIFIED' ) ;
#12 = CARTESIAN_POINT ( 'NONE',  ( 0.7411759190257093399, -0.05519662789004006753, 1.155200341048521873 ) ) ;
#13 = LINE ( 'NONE', #262, #296 ) ;
#14 = DIRECTION ( 'NONE',  ( -0.0000000000000000000, 1.224646799147353454E-16, -1.000000000000000000 ) ) ;
#15 = AXIS2_PLACEMENT_3D ( 'NONE', #166, #246, #290 ) ;
#16 = DIRECTION ( 'NONE',  ( -0.0000000000000000000, 1.224646799147353454E-16, -1.000000000000000000 ) ) ;
#17 = PERSON_AND_ORGANIZATION ( #94, #274 ) ;
#18 = ORIENTED_EDGE ( 'NONE', *, *, #82, .F. ) ;
#19 = APPROVAL_STATUS ( 'not_yet_approved' ) ;
#20 = CC_DESIGN_APPROVAL ( #11, ( #164 ) ) ;
#21 = DATE_TIME_ROLE ( 'classification_date' ) ;
#22 = AXIS2_PLACEMENT_3D ( 'NONE', #265, #84, #242 ) ;
#23 = LOCAL_TIME ( 9, 58, 16.00000000000000000, #213 ) ;
#24 = ORIENTED_EDGE ( 'NONE', *, *, #248, .F. ) ;
#25 = ORIENTED_EDGE ( 'NONE', *, *, #200, .F. ) ;
#26 =( GEOMETRIC_REPRESENTATION_CONTEXT ( 3 ) GLOBAL_UNCERTAINTY_ASSIGNED_CONTEXT ( ( #89 ) ) GLOBAL_UNIT_ASSIGNED_CONTEXT ( ( #187, #231, #43 ) ) REPRESENTATION_CONTEXT ( 'NONE', 'WORKASPACE' ) );
#27 = ORIENTED_EDGE ( 'NONE', *, *, #188, .T. ) ;
#28 = APPROVAL_PERSON_ORGANIZATION ( #96, #135, #117 ) ;
#29 = ORIENTED_EDGE ( 'NONE', *, *, #108, .F. ) ;
#30 = PRODUCT_DEFINITION_FORMATION_WITH_SPECIFIED_SOURCE ( 'ANY', '', #72, .NOT_KNOWN. ) ;
#31 = AXIS2_PLACEMENT_3D ( 'NONE', #205, #80, #8 ) ;
#32 = CARTESIAN_POINT ( 'NONE',  ( 0.7411759190257092289, 0.9448033721099599047, 1.155200341048522095 ) ) ;
#33 = DATE_AND_TIME ( #255, #179 ) ;
#34 = DIRECTION ( 'NONE',  ( 0.0000000000000000000, 1.000000000000000000, 2.168404344971008868E-16 ) ) ;
#35 = CARTESIAN_POINT ( 'NONE',  ( 0.7411759190257092289, 0.9448033721099599047, 1.105200341048521384 ) ) ;
#36 = AXIS2_PLACEMENT_3D ( 'NONE', #133, #284, #259 ) ;
#37 = DIRECTION ( 'NONE',  ( -1.398519409849086818E-16, 1.000000000000000000, 0.0000000000000000000 ) ) ;
#38 = CARTESIAN_POINT ( 'NONE',  ( 0.7411759190257092289, 0.9448033721099599047, 1.105200341048521384 ) ) ;
#39 = CIRCLE ( 'NONE', #47, 3.100999999999999535 ) ;
#40 = CARTESIAN_POINT ( 'NONE',  ( 0.7411759190257092289, 1.944803372109960016, 1.155200341048522317 ) ) ;
#41 = CC_DESIGN_APPROVAL ( #143, ( #30 ) ) ;
#42 = ADVANCED_FACE ( 'NONE', ( #162 ), #148, .T. ) ;
#43 =( NAMED_UNIT ( * ) SI_UNIT ( $, .STERADIAN. ) SOLID_ANGLE_UNIT ( ) );
#44 = CIRCLE ( 'NONE', #15, 1.000000000000000000 ) ;
#45 = MECHANICAL_CONTEXT ( 'NONE', #172, 'mechanical' ) ;
#46 = EDGE_LOOP ( 'NONE', ( #225, #131, #29 ) ) ;
#47 = AXIS2_PLACEMENT_3D ( 'NONE', #269, #208, #37 ) ;
#48 = FACE_OUTER_BOUND ( 'NONE', #217, .T. ) ;
#49 = ORIENTED_EDGE ( 'NONE', *, *, #82, .T. ) ;
#50 = DATE_AND_TIME ( #125, #68 ) ;
#51 = CIRCLE ( 'NONE', #22, 0.9499999999999992895 ) ;
#52 = AXIS2_PLACEMENT_3D ( 'NONE', #215, #78, #236 ) ;
#53 = EDGE_LOOP ( 'NONE', ( #18, #98, #289, #202 ) ) ;
#54 = CARTESIAN_POINT ( 'NONE',  ( 0.7411759190257093399, -0.05519662789004017855, 1.906098205135285273 ) ) ;
#55 = ORIENTED_EDGE ( 'NONE', *, *, #301, .T. ) ;
#56 = CC_DESIGN_PERSON_AND_ORGANIZATION_ASSIGNMENT ( #17, #297, ( #164 ) ) ;
#57 = CARTESIAN_POINT ( 'NONE',  ( 0.7411759190257092289, -0.005196627890039287601, 1.105200341048521162 ) ) ;
#58 = FACE_OUTER_BOUND ( 'NONE', #127, .T. ) ;
#59 = PRODUCT_RELATED_PRODUCT_CATEGORY ( 'detail', '', ( #72 ) ) ;
#60 = EDGE_LOOP ( 'NONE', ( #233, #254, #93, #293 ) ) ;
#61 = ORIENTED_EDGE ( 'NONE', *, *, #196, .T. ) ;
#62 = CONICAL_SURFACE ( 'NONE', #79, 0.9499999999999992895, 0.7853981633974503884 ) ;
#63 = MANIFOLD_SOLID_BREP ( 'TTN162262-1-solid1', #279 ) ;
#64 = CARTESIAN_POINT ( 'NONE',  ( 0.7411759190257092289, -0.005196627890039287601, 1.105200341048521162 ) ) ;
#65 = EDGE_LOOP ( 'NONE', ( #3, #49 ) ) ;
#66 = DIRECTION ( 'NONE',  ( 1.000000000000000000, 0.0000000000000000000, 0.0000000000000000000 ) ) ;
#67 = APPROVAL_ROLE ( '' ) ;
#68 = LOCAL_TIME ( 9, 58, 16.00000000000000000, #152 ) ;
#69 = CIRCLE ( 'NONE', #52, 3.101000000000000423 ) ;
#70 = ADVANCED_FACE ( 'NONE', ( #244 ), #109, .T. ) ;
#71 = AXIS2_PLACEMENT_3D ( 'NONE', #270, #16, #291 ) ;
#72 = PRODUCT ( 'TTN162579-E0W', 'TTN162579-E0W', '', ( #45 ) ) ;
#73 = APPROVAL_STATUS ( 'not_yet_approved' ) ;
#74 = FACE_OUTER_BOUND ( 'NONE', #53, .T. ) ;
#75 = COORDINATED_UNIVERSAL_TIME_OFFSET ( 5, 0, .BEHIND. ) ;
#76 = DIRECTION ( 'NONE',  ( 1.000000000000000000, 0.0000000000000000000, -0.0000000000000000000 ) ) ;
#77 = CC_DESIGN_APPROVAL ( #135, ( #260 ) ) ;
#78 = DIRECTION ( 'NONE',  ( -1.000000000000000000, 0.0000000000000000000, 0.0000000000000000000 ) ) ;
#79 = AXIS2_PLACEMENT_3D ( 'NONE', #163, #115, #267 ) ;
#80 = DIRECTION ( 'NONE',  ( -0.0000000000000000000, 1.224646799147353454E-16, -1.000000000000000000 ) ) ;
#81 = LOCAL_TIME ( 9, 58, 16.00000000000000000, #247 ) ;
#82 = EDGE_CURVE ( 'NONE', #275, #288, #51, .T. ) ;
#83 = ORIENTED_EDGE ( 'NONE', *, *, #130, .T. ) ;
#84 = DIRECTION ( 'NONE',  ( -0.0000000000000000000, 1.224646799147353454E-16, -1.000000000000000000 ) ) ;
#85 = CC_DESIGN_DATE_AND_TIME_ASSIGNMENT ( #50, #21, ( #164 ) ) ;
#86 = DIRECTION ( 'NONE',  ( 0.0000000000000000000, 1.000000000000000000, 0.0000000000000000000 ) ) ;
#87 = ORIENTED_EDGE ( 'NONE', *, *, #301, .F. ) ;
#88 = CARTESIAN_POINT ( 'NONE',  ( 0.7411759190257092289, 0.9448033721099599047, -0.9957996589514785946 ) ) ;
#89 = UNCERTAINTY_MEASURE_WITH_UNIT (LENGTH_MEASURE( 1.000000000000000082E-05 ), #187, 'distance_accuracy_value', 'NONE');
#90 = DIRECTION ( 'NONE',  ( 0.0000000000000000000, 1.000000000000000000, 1.398519409849086818E-16 ) ) ;
#91 = APPROVAL_DATE_TIME ( #33, #11 ) ;
#92 = APPLICATION_PROTOCOL_DEFINITION ( 'international standard', 'config_control_design', 1994, #172 ) ;
#93 = ORIENTED_EDGE ( 'NONE', *, *, #196, .F. ) ;
#94 = PERSON ( 'UNSPECIFIED', 'UNSPECIFIED', 'UNSPECIFIED', ('UNSPECIFIED'), ('UNSPECIFIED'), ('UNSPECIFIED') ) ;
#95 = APPROVAL_ROLE ( '' ) ;
#96 = PERSON_AND_ORGANIZATION ( #94, #274 ) ;
#97 = AXIS2_PLACEMENT_3D ( 'NONE', #88, #209, #90 ) ;
#98 = ORIENTED_EDGE ( 'NONE', *, *, #200, .T. ) ;
#99 = AXIS2_PLACEMENT_3D ( 'NONE', #165, #14, #86 ) ;
#100 = APPROVAL_DATE_TIME ( #261, #143 ) ;
#101 = DIRECTION ( 'NONE',  ( 0.0000000000000000000, 1.000000000000000000, 1.398519409849086818E-16 ) ) ;
#102 = EDGE_LOOP ( 'NONE', ( #169, #263, #181, #281 ) ) ;
#103 = AXIS2_PLACEMENT_3D ( 'NONE', #107, #182, #204 ) ;
#104 = FACE_OUTER_BOUND ( 'NONE', #60, .T. ) ;
#105 = CARTESIAN_POINT ( 'NONE',  ( 0.7411759190257092289, 0.9448033721099597937, 1.906098205135285495 ) ) ;
#106 = CARTESIAN_POINT ( 'NONE',  ( 0.7411759190257092289, 1.944803372109959794, 1.906098205135285717 ) ) ;
#107 = CARTESIAN_POINT ( 'NONE',  ( 0.7411759190257092289, 0.9448033721099597937, 1.956098205135285761 ) ) ;
#108 = EDGE_CURVE ( 'NONE', #249, #266, #155, .T. ) ;
#109 = CONICAL_SURFACE ( 'NONE', #278, 1.000000000000000000, 0.7853981633974482790 ) ;
#110 = CARTESIAN_POINT ( 'NONE',  ( 0.7411759190257093399, -0.05519662789004006753, 1.105200341048521162 ) ) ;
#111 = PLANE ( 'NONE',  #71 ) ;
#112 = CONICAL_SURFACE ( 'NONE', #139, 1.000000000000000000, 0.7853981633974482790 ) ;
#113 = AXIS2_PLACEMENT_3D ( 'NONE', #38, #206, #243 ) ;
#114 = VERTEX_POINT ( 'NONE', #54 ) ;
#115 = DIRECTION ( 'NONE',  ( 0.0000000000000000000, -1.224646799147353454E-16, 1.000000000000000000 ) ) ;
#116 = DESIGN_CONTEXT ( 'detailed design', #175, 'design' ) ;
#117 = APPROVAL_ROLE ( '' ) ;
#118 = PERSON_AND_ORGANIZATION ( #94, #274 ) ;
#119 = SHAPE_DEFINITION_REPRESENTATION ( #1, #253 ) ;
#120 = APPLICATION_PROTOCOL_DEFINITION ( 'international standard', 'config_control_design', 1994, #175 ) ;
#121 = PERSON_AND_ORGANIZATION_ROLE ( 'design_owner' ) ;
#122 = AXIS2_PLACEMENT_3D ( 'NONE', #35, #201, #238 ) ;
#123 = VECTOR ( 'NONE', #268, 1000.000000000000000 ) ;
#124 = ORIENTED_EDGE ( 'NONE', *, *, #147, .T. ) ;
#125 = CALENDAR_DATE ( 2019, 24, 10 ) ;
#126 = LINE ( 'NONE', #57, #241 ) ;
#127 = EDGE_LOOP ( 'NONE', ( #61, #55, #124, #10 ) ) ;
#128 = VECTOR ( 'NONE', #158, 1000.000000000000000 ) ;
#129 = DIRECTION ( 'NONE',  ( 0.0000000000000000000, 1.000000000000000000, 2.168404344971008868E-16 ) ) ;
#130 = EDGE_CURVE ( 'NONE', #280, #232, #250, .T. ) ;
#131 = ORIENTED_EDGE ( 'NONE', *, *, #224, .T. ) ;
#132 = CARTESIAN_POINT ( 'NONE',  ( 0.7411759190257092289, 0.9448033721099597937, 1.906098205135285495 ) ) ;
#133 = CARTESIAN_POINT ( 'NONE',  ( 0.7411759190257092289, 0.9448033721099599047, 1.155200341048522095 ) ) ;
#134 = VECTOR ( 'NONE', #245, 1000.000000000000000 ) ;
#135 = APPROVAL ( #149, 'UNSPECIFIED' ) ;
#136 = DIRECTION ( 'NONE',  ( 0.0000000000000000000, -1.000000000000000000, -2.282530889443168994E-16 ) ) ;
#137 = ORIENTED_EDGE ( 'NONE', *, *, #160, .T. ) ;
#138 = DIRECTION ( 'NONE',  ( 0.0000000000000000000, -1.224646799147353454E-16, 1.000000000000000000 ) ) ;
#139 = AXIS2_PLACEMENT_3D ( 'NONE', #132, #220, #283 ) ;
#140 = CYLINDRICAL_SURFACE ( 'NONE', #31, 1.000000000000000000 ) ;
#141 = CARTESIAN_POINT ( 'NONE',  ( 0.0000000000000000000, 0.0000000000000000000, 0.0000000000000000000 ) ) ;
#142 = APPROVAL_PERSON_ORGANIZATION ( #118, #143, #67 ) ;
#143 = APPROVAL ( #19, 'UNSPECIFIED' ) ;
#144 = ADVANCED_FACE ( 'NONE', ( #192 ), #199, .T. ) ;
#145 = PERSON_AND_ORGANIZATION_ROLE ( 'design_supplier' ) ;
#146 = DATE_TIME_ROLE ( 'creation_date' ) ;
#147 = EDGE_CURVE ( 'NONE', #232, #280, #198, .T. ) ;
#148 = SPHERICAL_SURFACE ( 'NONE', #4, 3.100999999999999979 ) ;
#149 = APPROVAL_STATUS ( 'not_yet_approved' ) ;
#150 = EDGE_CURVE ( 'NONE', #288, #232, #126, .T. ) ;
#151 = VERTEX_POINT ( 'NONE', #106 ) ;
#152 = COORDINATED_UNIVERSAL_TIME_OFFSET ( 5, 0, .BEHIND. ) ;
#153 = CARTESIAN_POINT ( 'NONE',  ( 0.7411759190257092289, 0.9448033721099599047, -0.9957996589514785946 ) ) ;
#154 = CC_DESIGN_DATE_AND_TIME_ASSIGNMENT ( #239, #146, ( #260 ) ) ;
#155 = CIRCLE ( 'NONE', #103, 0.9499999999999995115 ) ;
#156 = AXIS2_PLACEMENT_3D ( 'NONE', #287, #138, #136 ) ;
#157 = DIRECTION ( 'NONE',  ( 0.0000000000000000000, -1.224646799147353454E-16, 1.000000000000000000 ) ) ;
#158 = DIRECTION ( 'NONE',  ( 0.0000000000000000000, 0.7071067811865476838, -0.7071067811865474617 ) ) ;
#159 = PERSON_AND_ORGANIZATION ( #94, #274 ) ;
#160 = EDGE_CURVE ( 'NONE', #216, #249, #69, .T. ) ;
#161 = DIRECTION ( 'NONE',  ( 8.659560562354934091E-17, -0.7071067811865474617, -0.7071067811865476838 ) ) ;
#162 = FACE_OUTER_BOUND ( 'NONE', #212, .T. ) ;
#163 = CARTESIAN_POINT ( 'NONE',  ( 0.7411759190257092289, 0.9448033721099599047, 1.105200341048521384 ) ) ;
#164 = SECURITY_CLASSIFICATION ( '', '', #294 ) ;
#165 = CARTESIAN_POINT ( 'NONE',  ( 0.7411759190257092289, 0.9448033721099597937, 1.956098205135285761 ) ) ;
#166 = CARTESIAN_POINT ( 'NONE',  ( 0.7411759190257092289, 0.9448033721099597937, 1.906098205135285495 ) ) ;
#167 = EDGE_CURVE ( 'NONE', #114, #151, #234, .T. ) ;
#168 = APPROVAL_DATE_TIME ( #207, #135 ) ;
#169 = ORIENTED_EDGE ( 'NONE', *, *, #219, .F. ) ;
#170 = CARTESIAN_POINT ( 'NONE',  ( 0.7411759190257093399, 1.894803372109959083, 1.105200341048521606 ) ) ;
#171 = ADVANCED_FACE ( 'NONE', ( #104 ), #112, .T. ) ;
#172 = APPLICATION_CONTEXT ( 'configuration controlled 3d designs of mechanical parts and assemblies' ) ;
#173 = ADVANCED_FACE ( 'NONE', ( #58 ), #140, .T. ) ;
#174 = ORIENTED_EDGE ( 'NONE', *, *, #224, .F. ) ;
#175 = APPLICATION_CONTEXT ( 'configuration controlled 3d designs of mechanical parts and assemblies' ) ;
#176 = ORIENTED_EDGE ( 'NONE', *, *, #167, .T. ) ;
#177 = PERSON_AND_ORGANIZATION ( #94, #274 ) ;
#178 = CC_DESIGN_PERSON_AND_ORGANIZATION_ASSIGNMENT ( #177, #121, ( #72 ) ) ;
#179 = LOCAL_TIME ( 9, 58, 16.00000000000000000, #75 ) ;
#180 = FACE_OUTER_BOUND ( 'NONE', #46, .T. ) ;
#181 = ORIENTED_EDGE ( 'NONE', *, *, #184, .T. ) ;
#182 = DIRECTION ( 'NONE',  ( -0.0000000000000000000, 1.224646799147353454E-16, -1.000000000000000000 ) ) ;
#183 = DIRECTION ( 'NONE',  ( -0.0000000000000000000, 1.224646799147353454E-16, -1.000000000000000000 ) ) ;
#184 = EDGE_CURVE ( 'NONE', #249, #151, #276, .T. ) ;
#185 = CALENDAR_DATE ( 2019, 24, 10 ) ;
#186 = LINE ( 'NONE', #170, #134 ) ;
#187 =( LENGTH_UNIT ( ) NAMED_UNIT ( * ) SI_UNIT ( .MILLI., .METRE. ) );
#188 = EDGE_CURVE ( 'NONE', #151, #280, #13, .T. ) ;
#189 = CARTESIAN_POINT ( 'NONE',  ( 0.7411759190257093399, 1.894803372109959083, 1.105200341048521606 ) ) ;
#190 = LINE ( 'NONE', #110, #123 ) ;
#191 = APPROVAL_PERSON_ORGANIZATION ( #7, #11, #95 ) ;
#192 = FACE_OUTER_BOUND ( 'NONE', #251, .T. ) ;
#193 = ADVANCED_FACE ( 'NONE', ( #48 ), #300, .T. ) ;
#194 = CIRCLE ( 'NONE', #99, 0.9499999999999995115 ) ;
#195 = AXIS2_PLACEMENT_3D ( 'NONE', #141, #210, #66 ) ;
#196 = EDGE_CURVE ( 'NONE', #151, #114, #44, .T. ) ;
#197 = ORIENTED_EDGE ( 'NONE', *, *, #256, .F. ) ;
#198 = CIRCLE ( 'NONE', #36, 1.000000000000000000 ) ;
#199 = CYLINDRICAL_SURFACE ( 'NONE', #122, 1.000000000000000000 ) ;
#200 = EDGE_CURVE ( 'NONE', #275, #280, #186, .T. ) ;
#201 = DIRECTION ( 'NONE',  ( -0.0000000000000000000, 1.224646799147353454E-16, -1.000000000000000000 ) ) ;
#202 = ORIENTED_EDGE ( 'NONE', *, *, #150, .F. ) ;
#203 = COORDINATED_UNIVERSAL_TIME_OFFSET ( 5, 0, .BEHIND. ) ;
#204 = DIRECTION ( 'NONE',  ( 0.0000000000000000000, 1.000000000000000000, 0.0000000000000000000 ) ) ;
#205 = CARTESIAN_POINT ( 'NONE',  ( 0.7411759190257092289, 0.9448033721099599047, 1.105200341048521384 ) ) ;
#206 = DIRECTION ( 'NONE',  ( -0.0000000000000000000, 1.224646799147353454E-16, -1.000000000000000000 ) ) ;
#207 = DATE_AND_TIME ( #257, #23 ) ;
#208 = DIRECTION ( 'NONE',  ( 1.000000000000000000, 1.224646799147353207E-16, 1.499759782661857882E-32 ) ) ;
#209 = DIRECTION ( 'NONE',  ( 1.000000000000000000, 0.0000000000000000000, -0.0000000000000000000 ) ) ;
#210 = DIRECTION ( 'NONE',  ( 0.0000000000000000000, 0.0000000000000000000, 1.000000000000000000 ) ) ;
#211 = PERSON_AND_ORGANIZATION ( #94, #274 ) ;
#212 = EDGE_LOOP ( 'NONE', ( #174, #137, #24 ) ) ;
#213 = COORDINATED_UNIVERSAL_TIME_OFFSET ( 5, 0, .BEHIND. ) ;
#214 = PERSON_AND_ORGANIZATION ( #94, #274 ) ;
#215 = CARTESIAN_POINT ( 'NONE',  ( 0.7411759190257092289, 0.9448033721099599047, -0.9957996589514785946 ) ) ;
#216 = VERTEX_POINT ( 'NONE', #222 ) ;
#217 = EDGE_LOOP ( 'NONE', ( #25, #197, #277, #295 ) ) ;
#218 = DIRECTION ( 'NONE',  ( -0.0000000000000000000, 1.224646799147353454E-16, -1.000000000000000000 ) ) ;
#219 = EDGE_CURVE ( 'NONE', #266, #114, #221, .T. ) ;
#220 = DIRECTION ( 'NONE',  ( -0.0000000000000000000, 1.224646799147353454E-16, -1.000000000000000000 ) ) ;
#221 = LINE ( 'NONE', #223, #282 ) ;
#222 = CARTESIAN_POINT ( 'NONE',  ( 0.7411759190257092289, 0.9448033721099596827, 2.105200341048521828 ) ) ;
#223 = CARTESIAN_POINT ( 'NONE',  ( 0.7411759190257093399, -0.05519662789004017855, 1.906098205135285273 ) ) ;
#224 = EDGE_CURVE ( 'NONE', #216, #266, #39, .T. ) ;
#225 = ORIENTED_EDGE ( 'NONE', *, *, #160, .F. ) ;
#226 = CIRCLE ( 'NONE', #113, 0.9499999999999992895 ) ;
#227 = ADVANCED_FACE ( 'NONE', ( #74 ), #62, .T. ) ;
#228 = CC_DESIGN_SECURITY_CLASSIFICATION ( #164, ( #30 ) ) ;
#229 = LOCAL_TIME ( 9, 58, 16.00000000000000000, #203 ) ;
#230 = PERSON_AND_ORGANIZATION_ROLE ( 'creator' ) ;
#231 =( NAMED_UNIT ( * ) PLANE_ANGLE_UNIT ( ) SI_UNIT ( $, .RADIAN. ) );
#232 = VERTEX_POINT ( 'NONE', #12 ) ;
#233 = ORIENTED_EDGE ( 'NONE', *, *, #108, .T. ) ;
#234 = CIRCLE ( 'NONE', #252, 1.000000000000000000 ) ;
#235 = SPHERICAL_SURFACE ( 'NONE', #97, 3.100999999999999979 ) ;
#236 = DIRECTION ( 'NONE',  ( 0.0000000000000000000, 0.0000000000000000000, 1.000000000000000000 ) ) ;
#237 = CARTESIAN_POINT ( 'NONE',  ( 0.7411759190257092289, 0.9448033721099597937, 1.906098205135285495 ) ) ;
#238 = DIRECTION ( 'NONE',  ( 0.0000000000000000000, 1.000000000000000000, 2.168404344971008868E-16 ) ) ;
#239 = DATE_AND_TIME ( #185, #81 ) ;
#240 = CC_DESIGN_PERSON_AND_ORGANIZATION_ASSIGNMENT ( #214, #273, ( #30 ) ) ;
#241 = VECTOR ( 'NONE', #285, 1000.000000000000114 ) ;
#242 = DIRECTION ( 'NONE',  ( 0.0000000000000000000, 1.000000000000000000, 2.282530889443168994E-16 ) ) ;
#243 = DIRECTION ( 'NONE',  ( 0.0000000000000000000, 1.000000000000000000, 2.282530889443168994E-16 ) ) ;
#244 = FACE_OUTER_BOUND ( 'NONE', #102, .T. ) ;
#245 = DIRECTION ( 'NONE',  ( 8.659560562354952580E-17, 0.7071067811865489050, 0.7071067811865462405 ) ) ;
#246 = DIRECTION ( 'NONE',  ( -0.0000000000000000000, 1.224646799147353454E-16, -1.000000000000000000 ) ) ;
#247 = COORDINATED_UNIVERSAL_TIME_OFFSET ( 5, 0, .BEHIND. ) ;
#248 = EDGE_CURVE ( 'NONE', #266, #249, #194, .T. ) ;
#249 = VERTEX_POINT ( 'NONE', #271 ) ;
#250 = CIRCLE ( 'NONE', #9, 1.000000000000000000 ) ;
#251 = EDGE_LOOP ( 'NONE', ( #87, #176, #27, #83 ) ) ;
#252 = AXIS2_PLACEMENT_3D ( 'NONE', #237, #258, #129 ) ;
#253 = ADVANCED_BREP_SHAPE_REPRESENTATION ( 'TTN162579-E0W', ( #63, #195 ), #26 ) ;
#254 = ORIENTED_EDGE ( 'NONE', *, *, #219, .T. ) ;
#255 = CALENDAR_DATE ( 2019, 24, 10 ) ;
#256 = EDGE_CURVE ( 'NONE', #288, #275, #226, .T. ) ;
#257 = CALENDAR_DATE ( 2019, 24, 10 ) ;
#258 = DIRECTION ( 'NONE',  ( -0.0000000000000000000, 1.224646799147353454E-16, -1.000000000000000000 ) ) ;
#259 = DIRECTION ( 'NONE',  ( 0.0000000000000000000, 1.000000000000000000, 2.168404344971008868E-16 ) ) ;
#260 = PRODUCT_DEFINITION ( 'UNKNOWN', '', #30, #116 ) ;
#261 = DATE_AND_TIME ( #2, #229 ) ;
#262 = CARTESIAN_POINT ( 'NONE',  ( 0.7411759190257092289, 1.944803372109960016, 1.105200341048521606 ) ) ;
#263 = ORIENTED_EDGE ( 'NONE', *, *, #248, .T. ) ;
#264 = CARTESIAN_POINT ( 'NONE',  ( 0.7411759190257092289, 1.944803372109959794, 1.906098205135285717 ) ) ;
#265 = CARTESIAN_POINT ( 'NONE',  ( 0.7411759190257092289, 0.9448033721099599047, 1.105200341048521384 ) ) ;
#266 = VERTEX_POINT ( 'NONE', #286 ) ;
#267 = DIRECTION ( 'NONE',  ( 0.0000000000000000000, -1.000000000000000000, -2.282530889443168994E-16 ) ) ;
#268 = DIRECTION ( 'NONE',  ( -0.0000000000000000000, 1.224646799147353454E-16, -1.000000000000000000 ) ) ;
#269 = CARTESIAN_POINT ( 'NONE',  ( 0.7411759190257092289, 0.9448033721099599047, -0.9957996589514785946 ) ) ;
#270 = CARTESIAN_POINT ( 'NONE',  ( 0.7411759190257092289, 0.9448033721099599047, 1.105200341048521384 ) ) ;
#271 = CARTESIAN_POINT ( 'NONE',  ( 0.7411759190257092289, 1.894803372109959305, 1.956098205135285761 ) ) ;
#272 = ADVANCED_FACE ( 'NONE', ( #5 ), #111, .T. ) ;
#273 = PERSON_AND_ORGANIZATION_ROLE ( 'creator' ) ;
#274 = ORGANIZATION ( 'UNSPECIFIED', 'UNSPECIFIED', '' ) ;
#275 = VERTEX_POINT ( 'NONE', #189 ) ;
#276 = LINE ( 'NONE', #264, #128 ) ;
#277 = ORIENTED_EDGE ( 'NONE', *, *, #150, .T. ) ;
#278 = AXIS2_PLACEMENT_3D ( 'NONE', #105, #183, #6 ) ;
#279 = CLOSED_SHELL ( 'NONE', ( #227, #298, #171, #173, #272, #144, #70, #42, #193 ) ) ;
#280 = VERTEX_POINT ( 'NONE', #40 ) ;
#281 = ORIENTED_EDGE ( 'NONE', *, *, #167, .F. ) ;
#282 = VECTOR ( 'NONE', #161, 1000.000000000000000 ) ;
#283 = DIRECTION ( 'NONE',  ( 0.0000000000000000000, 1.000000000000000000, 2.168404344971008868E-16 ) ) ;
#284 = DIRECTION ( 'NONE',  ( 0.0000000000000000000, -1.224646799147353454E-16, 1.000000000000000000 ) ) ;
#285 = DIRECTION ( 'NONE',  ( 0.0000000000000000000, -0.7071067811865490160, 0.7071067811865460184 ) ) ;
#286 = CARTESIAN_POINT ( 'NONE',  ( 0.7411759190257093399, -0.005196627890039721281, 1.956098205135285761 ) ) ;
#287 = CARTESIAN_POINT ( 'NONE',  ( 0.7411759190257092289, 0.9448033721099599047, 1.105200341048521384 ) ) ;
#288 = VERTEX_POINT ( 'NONE', #64 ) ;
#289 = ORIENTED_EDGE ( 'NONE', *, *, #147, .F. ) ;
#290 = DIRECTION ( 'NONE',  ( 0.0000000000000000000, 1.000000000000000000, 2.168404344971008868E-16 ) ) ;
#291 = DIRECTION ( 'NONE',  ( 0.0000000000000000000, 1.000000000000000000, 1.224646799147353454E-16 ) ) ;
#292 = CC_DESIGN_PERSON_AND_ORGANIZATION_ASSIGNMENT ( #159, #230, ( #260 ) ) ;
#293 = ORIENTED_EDGE ( 'NONE', *, *, #184, .F. ) ;
#294 = SECURITY_CLASSIFICATION_LEVEL ( 'unclassified' ) ;
#295 = ORIENTED_EDGE ( 'NONE', *, *, #130, .F. ) ;
#296 = VECTOR ( 'NONE', #218, 1000.000000000000000 ) ;
#297 = PERSON_AND_ORGANIZATION_ROLE ( 'classification_officer' ) ;
#298 = ADVANCED_FACE ( 'NONE', ( #180 ), #235, .T. ) ;
#299 = CC_DESIGN_PERSON_AND_ORGANIZATION_ASSIGNMENT ( #211, #145, ( #30 ) ) ;
#300 = CONICAL_SURFACE ( 'NONE', #156, 0.9499999999999992895, 0.7853981633974503884 ) ;
#301 = EDGE_CURVE ( 'NONE', #114, #232, #190, .T. ) ;
ENDSEC;
END-ISO-10303-21;
