ISO-10303-21;
HEADER;
FILE_DESCRIPTION (( 'STEP AP203' ),
    '1' );
FILE_NAME ('Web Model ZnSe Unctd_39401.step',
    '2018-09-27T18:12:06',
    ( '' ),
    ( '' ),
    'SwSTEP 2.0',
    'SolidWorks 2016',
    '' );
FILE_SCHEMA (( 'CONFIG_CONTROL_DESIGN' ));
ENDSEC;

DATA;
#1 = VECTOR ( 'NONE', #10, 1000.000000000000000 ) ;
#2 = ORIENTED_EDGE ( 'NONE', *, *, #128, .F. ) ;
#3 = ORIENTED_EDGE ( 'NONE', *, *, #78, .T. ) ;
#4 = CC_DESIGN_APPROVAL ( #43, ( #34 ) ) ;
#5 = CALENDAR_DATE ( 2018, 27, 9 ) ;
#6 = CARTESIAN_POINT ( 'NONE',  ( 0.0000000000000000000, 0.0000000000000000000, -1.000000000000000000 ) ) ;
#7 = CC_DESIGN_PERSON_AND_ORGANIZATION_ASSIGNMENT ( #126, #24, ( #164 ) ) ;
#8 = CARTESIAN_POINT ( 'NONE',  ( 0.0000000000000000000, 0.0000000000000000000, -1.000000000000000000 ) ) ;
#9 =( NAMED_UNIT ( * ) PLANE_ANGLE_UNIT ( ) SI_UNIT ( $, .RADIAN. ) );
#10 = DIRECTION ( 'NONE',  ( -0.0000000000000000000, -0.0000000000000000000, -1.000000000000000000 ) ) ;
#11 = PRODUCT_DEFINITION_SHAPE ( 'NONE', 'NONE',  #164 ) ;
#12 = SECURITY_CLASSIFICATION_LEVEL ( 'unclassified' ) ;
#13 = ORIENTED_EDGE ( 'NONE', *, *, #163, .F. ) ;
#14 =( GEOMETRIC_REPRESENTATION_CONTEXT ( 3 ) GLOBAL_UNCERTAINTY_ASSIGNED_CONTEXT ( ( #29 ) ) GLOBAL_UNIT_ASSIGNED_CONTEXT ( ( #171, #9, #115 ) ) REPRESENTATION_CONTEXT ( 'NONE', 'WORKASPACE' ) );
#15 = SHAPE_DEFINITION_REPRESENTATION ( #11, #79 ) ;
#16 = AXIS2_PLACEMENT_3D ( 'NONE', #77, #25, #161 ) ;
#17 = DIRECTION ( 'NONE',  ( 1.000000000000000000, 0.0000000000000000000, 0.0000000000000000000 ) ) ;
#18 = PERSON_AND_ORGANIZATION ( #48, #67 ) ;
#19 = DIRECTION ( 'NONE',  ( 1.000000000000000000, 0.0000000000000000000, -0.0000000000000000000 ) ) ;
#20 = FACE_OUTER_BOUND ( 'NONE', #58, .T. ) ;
#21 = AXIS2_PLACEMENT_3D ( 'NONE', #51, #86, #87 ) ;
#22 = PLANE ( 'NONE',  #111 ) ;
#23 = APPLICATION_PROTOCOL_DEFINITION ( 'international standard', 'config_control_design', 1994, #39 ) ;
#24 = PERSON_AND_ORGANIZATION_ROLE ( 'creator' ) ;
#25 = DIRECTION ( 'NONE',  ( -0.0000000000000000000, -0.0000000000000000000, -1.000000000000000000 ) ) ;
#26 = APPROVAL_ROLE ( '' ) ;
#27 = PERSON_AND_ORGANIZATION ( #48, #67 ) ;
#28 = PERSON_AND_ORGANIZATION ( #48, #67 ) ;
#29 = UNCERTAINTY_MEASURE_WITH_UNIT (LENGTH_MEASURE( 1.000000000000000100E-005 ), #171, 'distance_accuracy_value', 'NONE');
#30 = CIRCLE ( 'NONE', #167, 25.39999999999999900 ) ;
#31 = PERSON_AND_ORGANIZATION ( #48, #67 ) ;
#32 = ORIENTED_EDGE ( 'NONE', *, *, #78, .F. ) ;
#33 = CARTESIAN_POINT ( 'NONE',  ( 0.0000000000000000000, 0.0000000000000000000, -1.000000000000000000 ) ) ;
#34 = PRODUCT_DEFINITION_FORMATION_WITH_SPECIFIED_SOURCE ( 'ANY', '', #113, .NOT_KNOWN. ) ;
#35 = CARTESIAN_POINT ( 'NONE',  ( -25.39999999999999900, 0.0000000000000000000, 1.000000000000000000 ) ) ;
#36 = APPROVAL_STATUS ( 'not_yet_approved' ) ;
#37 = ADVANCED_FACE ( 'NONE', ( #20 ), #129, .T. ) ;
#38 = LOCAL_TIME ( 14, 12, 6.000000000000000000, #98 ) ;
#39 = APPLICATION_CONTEXT ( 'configuration controlled 3d designs of mechanical parts and assemblies' ) ;
#40 = ADVANCED_FACE ( 'NONE', ( #136 ), #22, .F. ) ;
#41 = COORDINATED_UNIVERSAL_TIME_OFFSET ( 5, 0, .BEHIND. ) ;
#42 = ORIENTED_EDGE ( 'NONE', *, *, #119, .T. ) ;
#43 = APPROVAL ( #53, 'UNSPECIFIED' ) ;
#44 = AXIS2_PLACEMENT_3D ( 'NONE', #175, #101, #158 ) ;
#45 = CIRCLE ( 'NONE', #125, 25.39999999999999900 ) ;
#46 = VERTEX_POINT ( 'NONE', #112 ) ;
#47 = APPROVAL ( #36, 'UNSPECIFIED' ) ;
#48 = PERSON ( 'UNSPECIFIED', 'UNSPECIFIED', 'UNSPECIFIED', ('UNSPECIFIED'), ('UNSPECIFIED'), ('UNSPECIFIED') ) ;
#49 = DIRECTION ( 'NONE',  ( 1.000000000000000000, 0.0000000000000000000, -0.0000000000000000000 ) ) ;
#50 = CARTESIAN_POINT ( 'NONE',  ( 0.0000000000000000000, 0.0000000000000000000, 1.000000000000000000 ) ) ;
#51 = CARTESIAN_POINT ( 'NONE',  ( 0.0000000000000000000, 0.0000000000000000000, 1.000000000000000000 ) ) ;
#52 = DATE_TIME_ROLE ( 'classification_date' ) ;
#53 = APPROVAL_STATUS ( 'not_yet_approved' ) ;
#54 = CC_DESIGN_PERSON_AND_ORGANIZATION_ASSIGNMENT ( #18, #105, ( #151 ) ) ;
#55 = VECTOR ( 'NONE', #96, 1000.000000000000000 ) ;
#56 = CC_DESIGN_APPROVAL ( #47, ( #164 ) ) ;
#57 = FACE_OUTER_BOUND ( 'NONE', #70, .T. ) ;
#58 = EDGE_LOOP ( 'NONE', ( #108, #166 ) ) ;
#59 = CIRCLE ( 'NONE', #156, 25.39999999999999900 ) ;
#60 = MANIFOLD_SOLID_BREP ( 'Boss-Extrude1', #122 ) ;
#61 = CARTESIAN_POINT ( 'NONE',  ( 25.39999999999999900, 3.110602869834276900E-015, 1.000000000000000000 ) ) ;
#62 = LOCAL_TIME ( 14, 12, 6.000000000000000000, #41 ) ;
#63 = CARTESIAN_POINT ( 'NONE',  ( 25.39999999999999900, 3.110602869834276900E-015, -1.000000000000000000 ) ) ;
#64 = DIRECTION ( 'NONE',  ( 0.0000000000000000000, 0.0000000000000000000, 1.000000000000000000 ) ) ;
#65 = COORDINATED_UNIVERSAL_TIME_OFFSET ( 5, 0, .BEHIND. ) ;
#66 = APPROVAL_ROLE ( '' ) ;
#67 = ORGANIZATION ( 'UNSPECIFIED', 'UNSPECIFIED', '' ) ;
#68 = CC_DESIGN_PERSON_AND_ORGANIZATION_ASSIGNMENT ( #100, #92, ( #34 ) ) ;
#69 = DATE_AND_TIME ( #123, #38 ) ;
#70 = EDGE_LOOP ( 'NONE', ( #32, #2, #88, #42 ) ) ;
#71 = CC_DESIGN_DATE_AND_TIME_ASSIGNMENT ( #69, #52, ( #151 ) ) ;
#72 = DATE_AND_TIME ( #5, #168 ) ;
#73 = CARTESIAN_POINT ( 'NONE',  ( -25.39999999999999900, 0.0000000000000000000, 1.000000000000000000 ) ) ;
#74 = ORIENTED_EDGE ( 'NONE', *, *, #119, .F. ) ;
#75 = CARTESIAN_POINT ( 'NONE',  ( 0.0000000000000000000, 0.0000000000000000000, 1.000000000000000000 ) ) ;
#76 = CYLINDRICAL_SURFACE ( 'NONE', #16, 25.39999999999999900 ) ;
#77 = CARTESIAN_POINT ( 'NONE',  ( 0.0000000000000000000, 0.0000000000000000000, 1.000000000000000000 ) ) ;
#78 = EDGE_CURVE ( 'NONE', #46, #162, #127, .T. ) ;
#79 = ADVANCED_BREP_SHAPE_REPRESENTATION ( 'Web Model ZnSe Unctd_39401', ( #60, #44 ), #14 ) ;
#80 = APPROVAL ( #141, 'UNSPECIFIED' ) ;
#81 = APPROVAL_PERSON_ORGANIZATION ( #27, #43, #66 ) ;
#82 = EDGE_LOOP ( 'NONE', ( #74, #150 ) ) ;
#83 = DESIGN_CONTEXT ( 'detailed design', #90, 'design' ) ;
#84 = EDGE_CURVE ( 'NONE', #46, #153, #120, .T. ) ;
#85 = PRODUCT_RELATED_PRODUCT_CATEGORY ( 'detail', '', ( #113 ) ) ;
#86 = DIRECTION ( 'NONE',  ( -0.0000000000000000000, -0.0000000000000000000, -1.000000000000000000 ) ) ;
#87 = DIRECTION ( 'NONE',  ( -1.000000000000000000, 0.0000000000000000000, 0.0000000000000000000 ) ) ;
#88 = ORIENTED_EDGE ( 'NONE', *, *, #163, .T. ) ;
#89 = DIRECTION ( 'NONE',  ( 0.0000000000000000000, 0.0000000000000000000, 1.000000000000000000 ) ) ;
#90 = APPLICATION_CONTEXT ( 'configuration controlled 3d designs of mechanical parts and assemblies' ) ;
#91 = CC_DESIGN_DATE_AND_TIME_ASSIGNMENT ( #103, #133, ( #164 ) ) ;
#92 = PERSON_AND_ORGANIZATION_ROLE ( 'creator' ) ;
#93 = LOCAL_TIME ( 14, 12, 6.000000000000000000, #65 ) ;
#94 = PERSON_AND_ORGANIZATION ( #48, #67 ) ;
#95 = APPROVAL_DATE_TIME ( #134, #80 ) ;
#96 = DIRECTION ( 'NONE',  ( -0.0000000000000000000, -0.0000000000000000000, -1.000000000000000000 ) ) ;
#97 = CC_DESIGN_PERSON_AND_ORGANIZATION_ASSIGNMENT ( #28, #132, ( #34 ) ) ;
#98 = COORDINATED_UNIVERSAL_TIME_OFFSET ( 5, 0, .BEHIND. ) ;
#99 = DIRECTION ( 'NONE',  ( 0.0000000000000000000, 0.0000000000000000000, 1.000000000000000000 ) ) ;
#100 = PERSON_AND_ORGANIZATION ( #48, #67 ) ;
#101 = DIRECTION ( 'NONE',  ( 0.0000000000000000000, 0.0000000000000000000, 1.000000000000000000 ) ) ;
#102 = APPLICATION_PROTOCOL_DEFINITION ( 'international standard', 'config_control_design', 1994, #90 ) ;
#103 = DATE_AND_TIME ( #117, #62 ) ;
#104 = EDGE_LOOP ( 'NONE', ( #174, #3, #124, #13 ) ) ;
#105 = PERSON_AND_ORGANIZATION_ROLE ( 'classification_officer' ) ;
#106 = AXIS2_PLACEMENT_3D ( 'NONE', #50, #99, #19 ) ;
#107 = APPROVAL_PERSON_ORGANIZATION ( #109, #47, #116 ) ;
#108 = ORIENTED_EDGE ( 'NONE', *, *, #128, .T. ) ;
#109 = PERSON_AND_ORGANIZATION ( #48, #67 ) ;
#110 = CARTESIAN_POINT ( 'NONE',  ( -25.39999999999999900, 0.0000000000000000000, -1.000000000000000000 ) ) ;
#111 = AXIS2_PLACEMENT_3D ( 'NONE', #6, #140, #49 ) ;
#112 = CARTESIAN_POINT ( 'NONE',  ( 25.39999999999999900, 3.110602869834276900E-015, 1.000000000000000000 ) ) ;
#113 = PRODUCT ( 'Web Model ZnSe Unctd_39401', 'Web Model ZnSe Unctd_39401', '', ( #144 ) ) ;
#114 = CC_DESIGN_APPROVAL ( #80, ( #151 ) ) ;
#115 =( NAMED_UNIT ( * ) SI_UNIT ( $, .STERADIAN. ) SOLID_ANGLE_UNIT ( ) );
#116 = APPROVAL_ROLE ( '' ) ;
#117 = CALENDAR_DATE ( 2018, 27, 9 ) ;
#118 = CARTESIAN_POINT ( 'NONE',  ( 0.0000000000000000000, 0.0000000000000000000, 1.000000000000000000 ) ) ;
#119 = EDGE_CURVE ( 'NONE', #146, #162, #59, .T. ) ;
#120 = CIRCLE ( 'NONE', #145, 25.39999999999999900 ) ;
#121 = LINE ( 'NONE', #35, #1 ) ;
#122 = CLOSED_SHELL ( 'NONE', ( #170, #157, #37, #40 ) ) ;
#123 = CALENDAR_DATE ( 2018, 27, 9 ) ;
#124 = ORIENTED_EDGE ( 'NONE', *, *, #149, .T. ) ;
#125 = AXIS2_PLACEMENT_3D ( 'NONE', #8, #64, #130 ) ;
#126 = PERSON_AND_ORGANIZATION ( #48, #67 ) ;
#127 = LINE ( 'NONE', #61, #55 ) ;
#128 = EDGE_CURVE ( 'NONE', #153, #46, #30, .T. ) ;
#129 = PLANE ( 'NONE',  #106 ) ;
#130 = DIRECTION ( 'NONE',  ( 1.000000000000000000, 0.0000000000000000000, 0.0000000000000000000 ) ) ;
#131 = CALENDAR_DATE ( 2018, 27, 9 ) ;
#132 = PERSON_AND_ORGANIZATION_ROLE ( 'design_supplier' ) ;
#133 = DATE_TIME_ROLE ( 'creation_date' ) ;
#134 = DATE_AND_TIME ( #169, #93 ) ;
#135 = COORDINATED_UNIVERSAL_TIME_OFFSET ( 5, 0, .BEHIND. ) ;
#136 = FACE_OUTER_BOUND ( 'NONE', #82, .T. ) ;
#137 = APPROVAL_DATE_TIME ( #148, #47 ) ;
#138 = FACE_OUTER_BOUND ( 'NONE', #104, .T. ) ;
#139 = DIRECTION ( 'NONE',  ( 1.000000000000000000, 0.0000000000000000000, 0.0000000000000000000 ) ) ;
#140 = DIRECTION ( 'NONE',  ( 0.0000000000000000000, 0.0000000000000000000, 1.000000000000000000 ) ) ;
#141 = APPROVAL_STATUS ( 'not_yet_approved' ) ;
#142 = DIRECTION ( 'NONE',  ( 1.000000000000000000, 0.0000000000000000000, 0.0000000000000000000 ) ) ;
#143 = LOCAL_TIME ( 14, 12, 6.000000000000000000, #135 ) ;
#144 = MECHANICAL_CONTEXT ( 'NONE', #39, 'mechanical' ) ;
#145 = AXIS2_PLACEMENT_3D ( 'NONE', #75, #154, #17 ) ;
#146 = VERTEX_POINT ( 'NONE', #110 ) ;
#147 = CC_DESIGN_SECURITY_CLASSIFICATION ( #151, ( #34 ) ) ;
#148 = DATE_AND_TIME ( #131, #143 ) ;
#149 = EDGE_CURVE ( 'NONE', #162, #146, #45, .T. ) ;
#150 = ORIENTED_EDGE ( 'NONE', *, *, #149, .F. ) ;
#151 = SECURITY_CLASSIFICATION ( '', '', #12 ) ;
#152 = CYLINDRICAL_SURFACE ( 'NONE', #21, 25.39999999999999900 ) ;
#153 = VERTEX_POINT ( 'NONE', #73 ) ;
#154 = DIRECTION ( 'NONE',  ( 0.0000000000000000000, 0.0000000000000000000, 1.000000000000000000 ) ) ;
#155 = DIRECTION ( 'NONE',  ( 0.0000000000000000000, 0.0000000000000000000, 1.000000000000000000 ) ) ;
#156 = AXIS2_PLACEMENT_3D ( 'NONE', #33, #155, #139 ) ;
#157 = ADVANCED_FACE ( 'NONE', ( #57 ), #152, .T. ) ;
#158 = DIRECTION ( 'NONE',  ( 1.000000000000000000, 0.0000000000000000000, 0.0000000000000000000 ) ) ;
#159 = COORDINATED_UNIVERSAL_TIME_OFFSET ( 5, 0, .BEHIND. ) ;
#160 = CC_DESIGN_PERSON_AND_ORGANIZATION_ASSIGNMENT ( #94, #172, ( #113 ) ) ;
#161 = DIRECTION ( 'NONE',  ( -1.000000000000000000, 0.0000000000000000000, 0.0000000000000000000 ) ) ;
#162 = VERTEX_POINT ( 'NONE', #63 ) ;
#163 = EDGE_CURVE ( 'NONE', #153, #146, #121, .T. ) ;
#164 = PRODUCT_DEFINITION ( 'UNKNOWN', '', #34, #83 ) ;
#165 = APPROVAL_DATE_TIME ( #72, #43 ) ;
#166 = ORIENTED_EDGE ( 'NONE', *, *, #84, .T. ) ;
#167 = AXIS2_PLACEMENT_3D ( 'NONE', #118, #89, #142 ) ;
#168 = LOCAL_TIME ( 14, 12, 6.000000000000000000, #159 ) ;
#169 = CALENDAR_DATE ( 2018, 27, 9 ) ;
#170 = ADVANCED_FACE ( 'NONE', ( #138 ), #76, .T. ) ;
#171 =( LENGTH_UNIT ( ) NAMED_UNIT ( * ) SI_UNIT ( .MILLI., .METRE. ) );
#172 = PERSON_AND_ORGANIZATION_ROLE ( 'design_owner' ) ;
#173 = APPROVAL_PERSON_ORGANIZATION ( #31, #80, #26 ) ;
#174 = ORIENTED_EDGE ( 'NONE', *, *, #84, .F. ) ;
#175 = CARTESIAN_POINT ( 'NONE',  ( 0.0000000000000000000, 0.0000000000000000000, 0.0000000000000000000 ) ) ;
ENDSEC;
END-ISO-10303-21;
