ISO-10303-21;
HEADER;
FILE_DESCRIPTION (( 'STEP AP214' ),
    '1' );
FILE_NAME ('PKFEP4.STEP',
    '2015-01-14T09:06:25',
    ( '' ),
    ( '' ),
    'SwSTEP 2.0',
    'SolidWorks 2012',
    '' );
FILE_SCHEMA (( 'AUTOMOTIVE_DESIGN' ));
ENDSEC;

DATA;
#1 = FACE_OUTER_BOUND ( 'NONE', #47, .T. ) ;
#2 = PRESENTATION_STYLE_ASSIGNMENT (( #162 ) ) ;
#3 = SURFACE_STYLE_FILL_AREA ( #160 ) ;
#4 = COLOUR_RGB ( '',1.000000000000000000, 1.000000000000000000, 1.000000000000000000 ) ;
#5 = FACE_OUTER_BOUND ( 'NONE', #52, .T. ) ;
#6 = PRESENTATION_STYLE_ASSIGNMENT (( #173 ) ) ;
#7 = SURFACE_STYLE_FILL_AREA ( #171 ) ;
#8 = COLOUR_RGB ( '',1.000000000000000000, 1.000000000000000000, 1.000000000000000000 ) ;
#9 = FACE_OUTER_BOUND ( 'NONE', #46, .T. ) ;
#10 = VERTEX_POINT ( 'NONE', #120 ) ;
#11 = VERTEX_POINT ( 'NONE', #121 ) ;
#12 = ORIENTED_EDGE ( 'NONE', *, *, #87, .F. ) ;
#13 = CLOSED_SHELL ( 'NONE', ( #103, #102, #101, #100, #104, #105 ) ) ;
#14 = VERTEX_POINT ( 'NONE', #115 ) ;
#15 = LINE ( 'NONE', #124, #57 ) ;
#16 = VERTEX_POINT ( 'NONE', #113 ) ;
#17 = ORIENTED_EDGE ( 'NONE', *, *, #77, .T. ) ;
#18 = VERTEX_POINT ( 'NONE', #119 ) ;
#19 = ORIENTED_EDGE ( 'NONE', *, *, #81, .T. ) ;
#20 = VERTEX_POINT ( 'NONE', #123 ) ;
#21 = VERTEX_POINT ( 'NONE', #116 ) ;
#22 = VERTEX_POINT ( 'NONE', #117 ) ;
#23 = ORIENTED_EDGE ( 'NONE', *, *, #85, .F. ) ;
#24 = ORIENTED_EDGE ( 'NONE', *, *, #86, .T. ) ;
#25 = ORIENTED_EDGE ( 'NONE', *, *, #84, .T. ) ;
#26 = ORIENTED_EDGE ( 'NONE', *, *, #77, .F. ) ;
#27 = ORIENTED_EDGE ( 'NONE', *, *, #95, .F. ) ;
#28 = ORIENTED_EDGE ( 'NONE', *, *, #87, .T. ) ;
#29 = ORIENTED_EDGE ( 'NONE', *, *, #78, .F. ) ;
#30 = ORIENTED_EDGE ( 'NONE', *, *, #82, .T. ) ;
#31 = ORIENTED_EDGE ( 'NONE', *, *, #79, .F. ) ;
#32 = ORIENTED_EDGE ( 'NONE', *, *, #95, .T. ) ;
#33 = ORIENTED_EDGE ( 'NONE', *, *, #80, .T. ) ;
#34 = ORIENTED_EDGE ( 'NONE', *, *, #84, .F. ) ;
#35 = ORIENTED_EDGE ( 'NONE', *, *, #83, .F. ) ;
#36 = ORIENTED_EDGE ( 'NONE', *, *, #78, .T. ) ;
#37 = ORIENTED_EDGE ( 'NONE', *, *, #85, .T. ) ;
#38 = ORIENTED_EDGE ( 'NONE', *, *, #79, .T. ) ;
#39 = ORIENTED_EDGE ( 'NONE', *, *, #83, .T. ) ;
#40 = ORIENTED_EDGE ( 'NONE', *, *, #81, .F. ) ;
#41 = ORIENTED_EDGE ( 'NONE', *, *, #80, .F. ) ;
#42 = ORIENTED_EDGE ( 'NONE', *, *, #82, .F. ) ;
#43 = ORIENTED_EDGE ( 'NONE', *, *, #86, .F. ) ;
#44 = EDGE_LOOP ( 'NONE', ( #33, #34, #35, #36 ) ) ;
#45 = EDGE_LOOP ( 'NONE', ( #37, #17, #38, #39 ) ) ;
#46 = EDGE_LOOP ( 'NONE', ( #19, #12, #23, #25 ) ) ;
#47 = EDGE_LOOP ( 'NONE', ( #30, #29, #31, #32 ) ) ;
#48 = LINE ( 'NONE', #125, #58 ) ;
#49 = VECTOR ( 'NONE', #128, 1000.000000000000000 ) ;
#50 = LINE ( 'NONE', #114, #54 ) ;
#51 = EDGE_LOOP ( 'NONE', ( #40, #41, #42, #43 ) ) ;
#52 = EDGE_LOOP ( 'NONE', ( #24, #27, #26, #28 ) ) ;
#53 = LINE ( 'NONE', #131, #60 ) ;
#54 = VECTOR ( 'NONE', #127, 1000.000000000000000 ) ;
#55 = LINE ( 'NONE', #130, #62 ) ;
#56 = LINE ( 'NONE', #122, #49 ) ;
#57 = VECTOR ( 'NONE', #118, 1000.000000000000000 ) ;
#58 = VECTOR ( 'NONE', #134, 1000.000000000000000 ) ;
#59 = LINE ( 'NONE', #132, #76 ) ;
#60 = VECTOR ( 'NONE', #133, 1000.000000000000000 ) ;
#61 = LINE ( 'NONE', #126, #66 ) ;
#62 = VECTOR ( 'NONE', #129, 1000.000000000000000 ) ;
#63 = LINE ( 'NONE', #141, #71 ) ;
#64 = VECTOR ( 'NONE', #138, 1000.000000000000000 ) ;
#65 = LINE ( 'NONE', #139, #68 ) ;
#66 = VECTOR ( 'NONE', #136, 1000.000000000000000 ) ;
#67 = LINE ( 'NONE', #137, #64 ) ;
#68 = VECTOR ( 'NONE', #140, 1000.000000000000000 ) ;
#69 = PRESENTATION_STYLE_ASSIGNMENT (( #151 ) ) ;
#70 = SURFACE_STYLE_FILL_AREA ( #149 ) ;
#71 = VECTOR ( 'NONE', #142, 1000.000000000000000 ) ;
#72 = VECTOR ( 'NONE', #146, 1000.000000000000000 ) ;
#73 = COLOUR_RGB ( '',1.000000000000000000, 1.000000000000000000, 1.000000000000000000 ) ;
#74 = FACE_OUTER_BOUND ( 'NONE', #44, .T. ) ;
#75 = LINE ( 'NONE', #144, #72 ) ;
#76 = VECTOR ( 'NONE', #143, 1000.000000000000000 ) ;
#77 = EDGE_CURVE ( 'NONE', #14, #18, #15, .T. ) ;
#78 = EDGE_CURVE ( 'NONE', #10, #16, #56, .T. ) ;
#79 = EDGE_CURVE ( 'NONE', #18, #10, #50, .T. ) ;
#80 = EDGE_CURVE ( 'NONE', #16, #21, #55, .T. ) ;
#81 = EDGE_CURVE ( 'NONE', #21, #22, #53, .T. ) ;
#82 = EDGE_CURVE ( 'NONE', #11, #16, #48, .T. ) ;
#83 = EDGE_CURVE ( 'NONE', #10, #20, #61, .T. ) ;
#84 = EDGE_CURVE ( 'NONE', #20, #21, #67, .T. ) ;
#85 = EDGE_CURVE ( 'NONE', #20, #14, #65, .T. ) ;
#86 = EDGE_CURVE ( 'NONE', #22, #11, #63, .T. ) ;
#87 = EDGE_CURVE ( 'NONE', #14, #22, #59, .T. ) ;
#88 = PRESENTATION_LAYER_ASSIGNMENT (  '', '', ( #90 ) ) ;
#89 = AXIS2_PLACEMENT_3D ( 'NONE', #155, #156, #157 ) ;
#90 = STYLED_ITEM ( 'NONE', ( #2 ), #101 ) ;
#91 =( GEOMETRIC_REPRESENTATION_CONTEXT ( 3 ) GLOBAL_UNCERTAINTY_ASSIGNED_CONTEXT ( ( #283 ) ) GLOBAL_UNIT_ASSIGNED_CONTEXT ( ( #152, #153, #154 ) ) REPRESENTATION_CONTEXT ( 'NONE', 'WORKASPACE' ) );
#92 = MECHANICAL_DESIGN_GEOMETRIC_PRESENTATION_REPRESENTATION (  '', ( #94 ), #91 ) ;
#93 = PRESENTATION_LAYER_ASSIGNMENT (  '', '', ( #94 ) ) ;
#94 = STYLED_ITEM ( 'NONE', ( #69 ), #100 ) ;
#95 = EDGE_CURVE ( 'NONE', #18, #11, #75, .T. ) ;
#96 = PRODUCT ( 'PKFEP4', 'PKFEP4', '', ( #233 ) ) ;
#97 =( GEOMETRIC_REPRESENTATION_CONTEXT ( 3 ) GLOBAL_UNCERTAINTY_ASSIGNED_CONTEXT ( ( #284 ) ) GLOBAL_UNIT_ASSIGNED_CONTEXT ( ( #163, #164, #165 ) ) REPRESENTATION_CONTEXT ( 'NONE', 'WORKASPACE' ) );
#98 = MECHANICAL_DESIGN_GEOMETRIC_PRESENTATION_REPRESENTATION (  '', ( #90 ), #97 ) ;
#99 = STYLED_ITEM ( 'NONE', ( #6 ), #102 ) ;
#100 = ADVANCED_FACE ( 'NONE', ( #74 ), #145, .F. ) ;
#101 = ADVANCED_FACE ( 'NONE', ( #1 ), #135, .F. ) ;
#102 = ADVANCED_FACE ( 'NONE', ( #5 ), #158, .F. ) ;
#103 = ADVANCED_FACE ( 'NONE', ( #9 ), #169, .F. ) ;
#104 = ADVANCED_FACE ( 'NONE', ( #107 ), #180, .T. ) ;
#105 = ADVANCED_FACE ( 'NONE', ( #287 ), #191, .F. ) ;
#106 = PRESENTATION_STYLE_ASSIGNMENT (( #184 ) ) ;
#107 = FACE_OUTER_BOUND ( 'NONE', #45, .T. ) ;
#108 = PRESENTATION_STYLE_ASSIGNMENT (( #195 ) ) ;
#109 = COLOUR_RGB ( '',1.000000000000000000, 1.000000000000000000, 1.000000000000000000 ) ;
#110 = COLOUR_RGB ( '',1.000000000000000000, 1.000000000000000000, 1.000000000000000000 ) ;
#111 = SURFACE_STYLE_FILL_AREA ( #193 ) ;
#112 = SURFACE_STYLE_FILL_AREA ( #182 ) ;
#113 = CARTESIAN_POINT ( 'NONE',  ( 2.499999999999999600, 0.0000000000000000000, -2.500000000000000000 ) ) ;
#114 = CARTESIAN_POINT ( 'NONE',  ( 2.499999999999999600, 0.4000000000000000200, -2.500000000000000000 ) ) ;
#115 = CARTESIAN_POINT ( 'NONE',  ( -2.499999999999998700, 0.4000000000000000200, 2.500000000000000400 ) ) ;
#116 = CARTESIAN_POINT ( 'NONE',  ( -2.499999999999999600, 0.0000000000000000000, -2.499999999999999600 ) ) ;
#117 = CARTESIAN_POINT ( 'NONE',  ( -2.499999999999998700, 0.0000000000000000000, 2.500000000000000400 ) ) ;
#118 = DIRECTION ( 'NONE',  ( 1.000000000000000000, 0.0000000000000000000, -8.673617379884037900E-017 ) ) ;
#119 = CARTESIAN_POINT ( 'NONE',  ( 2.499999999999999600, 0.4000000000000000200, 2.500000000000000000 ) ) ;
#120 = CARTESIAN_POINT ( 'NONE',  ( 2.499999999999999600, 0.4000000000000000200, -2.500000000000000000 ) ) ;
#121 = CARTESIAN_POINT ( 'NONE',  ( 2.499999999999999600, 0.0000000000000000000, 2.500000000000000000 ) ) ;
#122 = CARTESIAN_POINT ( 'NONE',  ( 2.499999999999999600, 0.4000000000000000200, -2.500000000000000000 ) ) ;
#123 = CARTESIAN_POINT ( 'NONE',  ( -2.499999999999999600, 0.4000000000000000200, -2.499999999999999600 ) ) ;
#124 = CARTESIAN_POINT ( 'NONE',  ( -2.499999999999998700, 0.4000000000000000200, 2.500000000000000400 ) ) ;
#125 = CARTESIAN_POINT ( 'NONE',  ( 2.499999999999999600, 0.0000000000000000000, -2.500000000000000000 ) ) ;
#126 = CARTESIAN_POINT ( 'NONE',  ( -2.499999999999999600, 0.4000000000000000200, -2.499999999999999600 ) ) ;
#127 = DIRECTION ( 'NONE',  ( -0.0000000000000000000, -0.0000000000000000000, -1.000000000000000000 ) ) ;
#128 = DIRECTION ( 'NONE',  ( -0.0000000000000000000, -1.000000000000000000, -0.0000000000000000000 ) ) ;
#129 = DIRECTION ( 'NONE',  ( -1.000000000000000000, -0.0000000000000000000, 8.673617379884036700E-017 ) ) ;
#130 = CARTESIAN_POINT ( 'NONE',  ( -2.499999999999999600, 0.0000000000000000000, -2.499999999999999600 ) ) ;
#131 = CARTESIAN_POINT ( 'NONE',  ( -2.499999999999999600, 0.0000000000000000000, -2.499999999999999600 ) ) ;
#132 = CARTESIAN_POINT ( 'NONE',  ( -2.499999999999998700, 0.4000000000000000200, 2.500000000000000400 ) ) ;
#133 = DIRECTION ( 'NONE',  ( 1.734723475976807100E-016, 0.0000000000000000000, 1.000000000000000000 ) ) ;
#134 = DIRECTION ( 'NONE',  ( -0.0000000000000000000, -0.0000000000000000000, -1.000000000000000000 ) ) ;
#135 = PLANE ( 'NONE',  #237 ) ;
#136 = DIRECTION ( 'NONE',  ( -1.000000000000000000, -0.0000000000000000000, 8.673617379884036700E-017 ) ) ;
#137 = CARTESIAN_POINT ( 'NONE',  ( -2.499999999999999600, 0.4000000000000000200, -2.499999999999999600 ) ) ;
#138 = DIRECTION ( 'NONE',  ( -0.0000000000000000000, -1.000000000000000000, -0.0000000000000000000 ) ) ;
#139 = CARTESIAN_POINT ( 'NONE',  ( -2.499999999999999600, 0.4000000000000000200, -2.499999999999999600 ) ) ;
#140 = DIRECTION ( 'NONE',  ( 1.734723475976807100E-016, 0.0000000000000000000, 1.000000000000000000 ) ) ;
#141 = CARTESIAN_POINT ( 'NONE',  ( -2.499999999999998700, 0.0000000000000000000, 2.500000000000000400 ) ) ;
#142 = DIRECTION ( 'NONE',  ( 1.000000000000000000, 0.0000000000000000000, -8.673617379884037900E-017 ) ) ;
#143 = DIRECTION ( 'NONE',  ( -0.0000000000000000000, -1.000000000000000000, -0.0000000000000000000 ) ) ;
#144 = CARTESIAN_POINT ( 'NONE',  ( 2.499999999999999600, 0.4000000000000000200, 2.500000000000000000 ) ) ;
#145 = PLANE ( 'NONE',  #89 ) ;
#146 = DIRECTION ( 'NONE',  ( -0.0000000000000000000, -1.000000000000000000, -0.0000000000000000000 ) ) ;
#147 = FILL_AREA_STYLE_COLOUR ( '', #73 ) ;
#148 = FILL_AREA_STYLE_COLOUR ( '', #4 ) ;
#149 = FILL_AREA_STYLE ('',( #147 ) ) ;
#150 = SURFACE_SIDE_STYLE ('',( #70 ) ) ;
#151 = SURFACE_STYLE_USAGE ( .BOTH. , #150 ) ;
#152 =( LENGTH_UNIT ( ) NAMED_UNIT ( * ) SI_UNIT ( .MILLI., .METRE. ) );
#153 =( NAMED_UNIT ( * ) PLANE_ANGLE_UNIT ( ) SI_UNIT ( $, .RADIAN. ) );
#154 =( NAMED_UNIT ( * ) SI_UNIT ( $, .STERADIAN. ) SOLID_ANGLE_UNIT ( ) );
#155 = CARTESIAN_POINT ( 'NONE',  ( -2.499999999999999600, 0.4000000000000000200, -2.499999999999999600 ) ) ;
#156 = DIRECTION ( 'NONE',  ( 8.673617379884036700E-017, -0.0000000000000000000, 1.000000000000000000 ) ) ;
#157 = DIRECTION ( 'NONE',  ( 1.000000000000000000, 0.0000000000000000000, -8.673617379884036700E-017 ) ) ;
#158 = PLANE ( 'NONE',  #242 ) ;
#159 = FILL_AREA_STYLE_COLOUR ( '', #8 ) ;
#160 = FILL_AREA_STYLE ('',( #148 ) ) ;
#161 = SURFACE_SIDE_STYLE ('',( #3 ) ) ;
#162 = SURFACE_STYLE_USAGE ( .BOTH. , #161 ) ;
#163 =( LENGTH_UNIT ( ) NAMED_UNIT ( * ) SI_UNIT ( .MILLI., .METRE. ) );
#164 =( NAMED_UNIT ( * ) PLANE_ANGLE_UNIT ( ) SI_UNIT ( $, .RADIAN. ) );
#165 =( NAMED_UNIT ( * ) SI_UNIT ( $, .STERADIAN. ) SOLID_ANGLE_UNIT ( ) );
#166 = CARTESIAN_POINT ( 'NONE',  ( 2.499999999999999600, 0.4000000000000000200, -2.500000000000000000 ) ) ;
#167 = DIRECTION ( 'NONE',  ( -1.000000000000000000, 0.0000000000000000000, 0.0000000000000000000 ) ) ;
#168 = DIRECTION ( 'NONE',  ( 0.0000000000000000000, 0.0000000000000000000, 1.000000000000000000 ) ) ;
#169 = PLANE ( 'NONE',  #247 ) ;
#170 = FILL_AREA_STYLE_COLOUR ( '', #109 ) ;
#171 = FILL_AREA_STYLE ('',( #159 ) ) ;
#172 = SURFACE_SIDE_STYLE ('',( #7 ) ) ;
#173 = SURFACE_STYLE_USAGE ( .BOTH. , #172 ) ;
#174 =( LENGTH_UNIT ( ) NAMED_UNIT ( * ) SI_UNIT ( .MILLI., .METRE. ) );
#175 =( NAMED_UNIT ( * ) PLANE_ANGLE_UNIT ( ) SI_UNIT ( $, .RADIAN. ) );
#176 =( NAMED_UNIT ( * ) SI_UNIT ( $, .STERADIAN. ) SOLID_ANGLE_UNIT ( ) );
#177 = CARTESIAN_POINT ( 'NONE',  ( -2.499999999999998700, 0.4000000000000000200, 2.500000000000000400 ) ) ;
#178 = DIRECTION ( 'NONE',  ( -8.673617379884039200E-017, 0.0000000000000000000, -1.000000000000000000 ) ) ;
#179 = DIRECTION ( 'NONE',  ( -1.000000000000000000, 0.0000000000000000000, 8.673617379884039200E-017 ) ) ;
#180 = PLANE ( 'NONE',  #252 ) ;
#181 = FILL_AREA_STYLE_COLOUR ( '', #110 ) ;
#182 = FILL_AREA_STYLE ('',( #170 ) ) ;
#183 = SURFACE_SIDE_STYLE ('',( #112 ) ) ;
#184 = SURFACE_STYLE_USAGE ( .BOTH. , #183 ) ;
#185 =( LENGTH_UNIT ( ) NAMED_UNIT ( * ) SI_UNIT ( .MILLI., .METRE. ) );
#186 =( NAMED_UNIT ( * ) PLANE_ANGLE_UNIT ( ) SI_UNIT ( $, .RADIAN. ) );
#187 =( NAMED_UNIT ( * ) SI_UNIT ( $, .STERADIAN. ) SOLID_ANGLE_UNIT ( ) );
#188 = CARTESIAN_POINT ( 'NONE',  ( -2.499999999999999600, 0.4000000000000000200, -2.499999999999999600 ) ) ;
#189 = DIRECTION ( 'NONE',  ( 1.000000000000000000, 0.0000000000000000000, -1.734723475976807100E-016 ) ) ;
#190 = DIRECTION ( 'NONE',  ( -1.734723475976807100E-016, 0.0000000000000000000, -1.000000000000000000 ) ) ;
#191 = PLANE ( 'NONE',  #257 ) ;
#192 = FILL_AREA_STYLE_COLOUR ( '', #291 ) ;
#193 = FILL_AREA_STYLE ('',( #181 ) ) ;
#194 = SURFACE_SIDE_STYLE ('',( #111 ) ) ;
#195 = SURFACE_STYLE_USAGE ( .BOTH. , #194 ) ;
#196 =( LENGTH_UNIT ( ) NAMED_UNIT ( * ) SI_UNIT ( .MILLI., .METRE. ) );
#197 =( NAMED_UNIT ( * ) PLANE_ANGLE_UNIT ( ) SI_UNIT ( $, .RADIAN. ) );
#198 =( NAMED_UNIT ( * ) SI_UNIT ( $, .STERADIAN. ) SOLID_ANGLE_UNIT ( ) );
#199 = CARTESIAN_POINT ( 'NONE',  ( 0.0000000000000000000, 0.4000000000000000200, 0.0000000000000000000 ) ) ;
#200 = DIRECTION ( 'NONE',  ( -0.0000000000000000000, 1.000000000000000000, 0.0000000000000000000 ) ) ;
#201 = DIRECTION ( 'NONE',  ( 0.0000000000000000000, -0.0000000000000000000, 1.000000000000000000 ) ) ;
#202 = FILL_AREA_STYLE_COLOUR ( '', #292 ) ;
#203 = FILL_AREA_STYLE ('',( #213 ) ) ;
#204 = FILL_AREA_STYLE ('',( #192 ) ) ;
#205 = SURFACE_SIDE_STYLE ('',( #290 ) ) ;
#206 = SURFACE_STYLE_USAGE ( .BOTH. , #205 ) ;
#207 =( LENGTH_UNIT ( ) NAMED_UNIT ( * ) SI_UNIT ( .MILLI., .METRE. ) );
#208 =( NAMED_UNIT ( * ) PLANE_ANGLE_UNIT ( ) SI_UNIT ( $, .RADIAN. ) );
#209 =( NAMED_UNIT ( * ) SI_UNIT ( $, .STERADIAN. ) SOLID_ANGLE_UNIT ( ) );
#210 = CARTESIAN_POINT ( 'NONE',  ( 0.0000000000000000000, 0.0000000000000000000, 0.0000000000000000000 ) ) ;
#211 = DIRECTION ( 'NONE',  ( -0.0000000000000000000, 1.000000000000000000, 0.0000000000000000000 ) ) ;
#212 = DIRECTION ( 'NONE',  ( 0.0000000000000000000, -0.0000000000000000000, 1.000000000000000000 ) ) ;
#213 = FILL_AREA_STYLE_COLOUR ( '', #236 ) ;
#214 = FILL_AREA_STYLE ('',( #202 ) ) ;
#215 = SURFACE_SIDE_STYLE ('',( #280 ) ) ;
#216 = SURFACE_STYLE_USAGE ( .BOTH. , #215 ) ;
#217 =( LENGTH_UNIT ( ) NAMED_UNIT ( * ) SI_UNIT ( .MILLI., .METRE. ) );
#218 =( NAMED_UNIT ( * ) PLANE_ANGLE_UNIT ( ) SI_UNIT ( $, .RADIAN. ) );
#219 =( NAMED_UNIT ( * ) SI_UNIT ( $, .STERADIAN. ) SOLID_ANGLE_UNIT ( ) );
#220 =( LENGTH_UNIT ( ) NAMED_UNIT ( * ) SI_UNIT ( .MILLI., .METRE. ) );
#221 =( NAMED_UNIT ( * ) PLANE_ANGLE_UNIT ( ) SI_UNIT ( $, .RADIAN. ) );
#222 =( NAMED_UNIT ( * ) SI_UNIT ( $, .STERADIAN. ) SOLID_ANGLE_UNIT ( ) );
#223 = APPLICATION_PROTOCOL_DEFINITION ( 'draft international standard', 'automotive_design', 1998, #224 ) ;
#224 = APPLICATION_CONTEXT ( 'automotive_design' ) ;
#225 = SURFACE_SIDE_STYLE ('',( #279 ) ) ;
#226 = SURFACE_STYLE_USAGE ( .BOTH. , #225 ) ;
#227 =( LENGTH_UNIT ( ) NAMED_UNIT ( * ) SI_UNIT ( .MILLI., .METRE. ) );
#228 =( NAMED_UNIT ( * ) PLANE_ANGLE_UNIT ( ) SI_UNIT ( $, .RADIAN. ) );
#229 =( NAMED_UNIT ( * ) SI_UNIT ( $, .STERADIAN. ) SOLID_ANGLE_UNIT ( ) );
#230 = CARTESIAN_POINT ( 'NONE',  ( 0.0000000000000000000, 0.0000000000000000000, 0.0000000000000000000 ) ) ;
#231 = DIRECTION ( 'NONE',  ( 0.0000000000000000000, 0.0000000000000000000, 1.000000000000000000 ) ) ;
#232 = DIRECTION ( 'NONE',  ( 1.000000000000000000, 0.0000000000000000000, 0.0000000000000000000 ) ) ;
#233 = PRODUCT_CONTEXT ( 'NONE', #224, 'mechanical' ) ;
#234 = APPLICATION_CONTEXT ( 'automotive_design' ) ;
#235 = APPLICATION_PROTOCOL_DEFINITION ( 'draft international standard', 'automotive_design', 1998, #234 ) ;
#236 = COLOUR_RGB ( '',1.000000000000000000, 0.5019607843137254800, 0.5019607843137254800 ) ;
#237 = AXIS2_PLACEMENT_3D ( 'NONE', #166, #167, #168 ) ;
#238 = PRESENTATION_LAYER_ASSIGNMENT (  '', '', ( #99 ) ) ;
#239 = MECHANICAL_DESIGN_GEOMETRIC_PRESENTATION_REPRESENTATION (  '', ( #99 ), #240 ) ;
#240 =( GEOMETRIC_REPRESENTATION_CONTEXT ( 3 ) GLOBAL_UNCERTAINTY_ASSIGNED_CONTEXT ( ( #285 ) ) GLOBAL_UNIT_ASSIGNED_CONTEXT ( ( #174, #175, #176 ) ) REPRESENTATION_CONTEXT ( 'NONE', 'WORKASPACE' ) );
#241 = STYLED_ITEM ( 'NONE', ( #106 ), #103 ) ;
#242 = AXIS2_PLACEMENT_3D ( 'NONE', #177, #178, #179 ) ;
#243 = PRESENTATION_LAYER_ASSIGNMENT (  '', '', ( #241 ) ) ;
#244 = MECHANICAL_DESIGN_GEOMETRIC_PRESENTATION_REPRESENTATION (  '', ( #241 ), #245 ) ;
#245 =( GEOMETRIC_REPRESENTATION_CONTEXT ( 3 ) GLOBAL_UNCERTAINTY_ASSIGNED_CONTEXT ( ( #286 ) ) GLOBAL_UNIT_ASSIGNED_CONTEXT ( ( #185, #186, #187 ) ) REPRESENTATION_CONTEXT ( 'NONE', 'WORKASPACE' ) );
#246 = STYLED_ITEM ( 'NONE', ( #108 ), #104 ) ;
#247 = AXIS2_PLACEMENT_3D ( 'NONE', #188, #189, #190 ) ;
#248 = PRESENTATION_LAYER_ASSIGNMENT (  '', '', ( #246 ) ) ;
#249 = MECHANICAL_DESIGN_GEOMETRIC_PRESENTATION_REPRESENTATION (  '', ( #246 ), #250 ) ;
#250 =( GEOMETRIC_REPRESENTATION_CONTEXT ( 3 ) GLOBAL_UNCERTAINTY_ASSIGNED_CONTEXT ( ( #270 ) ) GLOBAL_UNIT_ASSIGNED_CONTEXT ( ( #196, #197, #198 ) ) REPRESENTATION_CONTEXT ( 'NONE', 'WORKASPACE' ) );
#251 = STYLED_ITEM ( 'NONE', ( #288 ), #105 ) ;
#252 = AXIS2_PLACEMENT_3D ( 'NONE', #199, #200, #201 ) ;
#253 = PRESENTATION_LAYER_ASSIGNMENT (  '', '', ( #251 ) ) ;
#254 = MECHANICAL_DESIGN_GEOMETRIC_PRESENTATION_REPRESENTATION (  '', ( #251 ), #255 ) ;
#255 =( GEOMETRIC_REPRESENTATION_CONTEXT ( 3 ) GLOBAL_UNCERTAINTY_ASSIGNED_CONTEXT ( ( #271 ) ) GLOBAL_UNIT_ASSIGNED_CONTEXT ( ( #207, #208, #209 ) ) REPRESENTATION_CONTEXT ( 'NONE', 'WORKASPACE' ) );
#256 = STYLED_ITEM ( 'NONE', ( #281 ), #282 ) ;
#257 = AXIS2_PLACEMENT_3D ( 'NONE', #210, #211, #212 ) ;
#258 = PRESENTATION_LAYER_ASSIGNMENT (  '', '', ( #256 ) ) ;
#259 = MECHANICAL_DESIGN_GEOMETRIC_PRESENTATION_REPRESENTATION (  '', ( #256 ), #260 ) ;
#260 =( GEOMETRIC_REPRESENTATION_CONTEXT ( 3 ) GLOBAL_UNCERTAINTY_ASSIGNED_CONTEXT ( ( #272 ) ) GLOBAL_UNIT_ASSIGNED_CONTEXT ( ( #217, #218, #219 ) ) REPRESENTATION_CONTEXT ( 'NONE', 'WORKASPACE' ) );
#261 =( GEOMETRIC_REPRESENTATION_CONTEXT ( 3 ) GLOBAL_UNCERTAINTY_ASSIGNED_CONTEXT ( ( #273 ) ) GLOBAL_UNIT_ASSIGNED_CONTEXT ( ( #220, #221, #222 ) ) REPRESENTATION_CONTEXT ( 'NONE', 'WORKASPACE' ) );
#262 = STYLED_ITEM ( 'NONE', ( #289 ), #274 ) ;
#263 = PRESENTATION_LAYER_ASSIGNMENT (  '', '', ( #262 ) ) ;
#264 = MECHANICAL_DESIGN_GEOMETRIC_PRESENTATION_REPRESENTATION (  '', ( #262 ), #265 ) ;
#265 =( GEOMETRIC_REPRESENTATION_CONTEXT ( 3 ) GLOBAL_UNCERTAINTY_ASSIGNED_CONTEXT ( ( #275 ) ) GLOBAL_UNIT_ASSIGNED_CONTEXT ( ( #227, #228, #229 ) ) REPRESENTATION_CONTEXT ( 'NONE', 'WORKASPACE' ) );
#266 = AXIS2_PLACEMENT_3D ( 'NONE', #230, #231, #232 ) ;
#267 = PRODUCT_DEFINITION ( 'UNKNOWN', '', #268, #277 ) ;
#268 = PRODUCT_DEFINITION_FORMATION_WITH_SPECIFIED_SOURCE ( 'ANY', '', #96, .NOT_KNOWN. ) ;
#269 = PRODUCT_RELATED_PRODUCT_CATEGORY ( 'part', '', ( #96 ) ) ;
#270 = UNCERTAINTY_MEASURE_WITH_UNIT (LENGTH_MEASURE( 1.000000000000000100E-005 ), #196, 'distance_accuracy_value', 'NONE');
#271 = UNCERTAINTY_MEASURE_WITH_UNIT (LENGTH_MEASURE( 1.000000000000000100E-005 ), #207, 'distance_accuracy_value', 'NONE');
#272 = UNCERTAINTY_MEASURE_WITH_UNIT (LENGTH_MEASURE( 1.000000000000000100E-005 ), #217, 'distance_accuracy_value', 'NONE');
#273 = UNCERTAINTY_MEASURE_WITH_UNIT (LENGTH_MEASURE( 1.000000000000000100E-005 ), #220, 'distance_accuracy_value', 'NONE');
#274 = ADVANCED_BREP_SHAPE_REPRESENTATION ( 'PKFEP4', ( #282, #266 ), #261 ) ;
#275 = UNCERTAINTY_MEASURE_WITH_UNIT (LENGTH_MEASURE( 1.000000000000000100E-005 ), #227, 'distance_accuracy_value', 'NONE');
#276 = SHAPE_DEFINITION_REPRESENTATION ( #278, #274 ) ;
#277 = PRODUCT_DEFINITION_CONTEXT ( 'detailed design', #234, 'design' ) ;
#278 = PRODUCT_DEFINITION_SHAPE ( 'NONE', 'NONE',  #267 ) ;
#279 = SURFACE_STYLE_FILL_AREA ( #203 ) ;
#280 = SURFACE_STYLE_FILL_AREA ( #214 ) ;
#281 = PRESENTATION_STYLE_ASSIGNMENT (( #216 ) ) ;
#282 = MANIFOLD_SOLID_BREP ( 'Boss-Extrude1', #13 ) ;
#283 = UNCERTAINTY_MEASURE_WITH_UNIT (LENGTH_MEASURE( 1.000000000000000100E-005 ), #152, 'distance_accuracy_value', 'NONE');
#284 = UNCERTAINTY_MEASURE_WITH_UNIT (LENGTH_MEASURE( 1.000000000000000100E-005 ), #163, 'distance_accuracy_value', 'NONE');
#285 = UNCERTAINTY_MEASURE_WITH_UNIT (LENGTH_MEASURE( 1.000000000000000100E-005 ), #174, 'distance_accuracy_value', 'NONE');
#286 = UNCERTAINTY_MEASURE_WITH_UNIT (LENGTH_MEASURE( 1.000000000000000100E-005 ), #185, 'distance_accuracy_value', 'NONE');
#287 = FACE_OUTER_BOUND ( 'NONE', #51, .T. ) ;
#288 = PRESENTATION_STYLE_ASSIGNMENT (( #206 ) ) ;
#289 = PRESENTATION_STYLE_ASSIGNMENT (( #226 ) ) ;
#290 = SURFACE_STYLE_FILL_AREA ( #204 ) ;
#291 = COLOUR_RGB ( '',1.000000000000000000, 1.000000000000000000, 1.000000000000000000 ) ;
#292 = COLOUR_RGB ( '',1.000000000000000000, 1.000000000000000000, 1.000000000000000000 ) ;
ENDSEC;
END-ISO-10303-21;
