ISO-10303-21;
HEADER;
FILE_DESCRIPTION (( 'STEP AP203' ),
    '1' );
FILE_NAME ('Web Model 83354.STEP',
    '2017-02-01T15:19:01',
    ( '' ),
    ( '' ),
    'SwSTEP 2.0',
    'SolidWorks 2016',
    '' );
FILE_SCHEMA (( 'CONFIG_CONTROL_DESIGN' ));
ENDSEC;

DATA;
#1 = CIRCLE ( 'NONE', #172, 6.250000000000000000 ) ;
#2 = ORIENTED_EDGE ( 'NONE', *, *, #163, .F. ) ;
#3 = AXIS2_PLACEMENT_3D ( 'NONE', #175, #94, #131 ) ;
#4 = APPLICATION_CONTEXT ( 'configuration controlled 3d designs of mechanical parts and assemblies' ) ;
#5 = PERSON_AND_ORGANIZATION_ROLE ( 'classification_officer' ) ;
#6 = DIRECTION ( 'NONE',  ( 0.0000000000000000000, 0.0000000000000000000, -1.000000000000000000 ) ) ;
#7 = CALENDAR_DATE ( 2017, 1, 2 ) ;
#8 = MECHANICAL_CONTEXT ( 'NONE', #4, 'mechanical' ) ;
#9 = PERSON_AND_ORGANIZATION ( #127, #53 ) ;
#10 = CYLINDRICAL_SURFACE ( 'NONE', #170, 6.250000000000000000 ) ;
#11 = AXIS2_PLACEMENT_3D ( 'NONE', #133, #159, #24 ) ;
#12 = APPROVAL_DATE_TIME ( #47, #60 ) ;
#13 = CIRCLE ( 'NONE', #38, 6.250000000000000000 ) ;
#14 = CLOSED_SHELL ( 'NONE', ( #81, #43, #80, #108 ) ) ;
#15 = CIRCLE ( 'NONE', #169, 6.250000000000000000 ) ;
#16 = DATE_AND_TIME ( #7, #82 ) ;
#17 = CARTESIAN_POINT ( 'NONE',  ( 3.000000000000000000, 0.0000000000000000000, 6.250000000000000000 ) ) ;
#18 = ORIENTED_EDGE ( 'NONE', *, *, #146, .T. ) ;
#19 = DATE_TIME_ROLE ( 'creation_date' ) ;
#20 = CARTESIAN_POINT ( 'NONE',  ( 0.0000000000000000000, 0.0000000000000000000, 0.0000000000000000000 ) ) ;
#21 = LINE ( 'NONE', #36, #148 ) ;
#22 = APPROVAL_ROLE ( '' ) ;
#23 = CALENDAR_DATE ( 2017, 1, 2 ) ;
#24 = DIRECTION ( 'NONE',  ( 0.0000000000000000000, 0.0000000000000000000, -1.000000000000000000 ) ) ;
#25 = APPROVAL_DATE_TIME ( #70, #130 ) ;
#26 = CARTESIAN_POINT ( 'NONE',  ( 0.0000000000000000000, 0.0000000000000000000, 6.250000000000000000 ) ) ;
#27 = APPROVAL_PERSON_ORGANIZATION ( #63, #60, #30 ) ;
#28 = AXIS2_PLACEMENT_3D ( 'NONE', #117, #103, #160 ) ;
#29 = DATE_AND_TIME ( #23, #51 ) ;
#30 = APPROVAL_ROLE ( '' ) ;
#31 = PERSON_AND_ORGANIZATION ( #127, #53 ) ;
#32 =( GEOMETRIC_REPRESENTATION_CONTEXT ( 3 ) GLOBAL_UNCERTAINTY_ASSIGNED_CONTEXT ( ( #139 ) ) GLOBAL_UNIT_ASSIGNED_CONTEXT ( ( #167, #73, #89 ) ) REPRESENTATION_CONTEXT ( 'NONE', 'WORKASPACE' ) );
#33 = CC_DESIGN_DATE_AND_TIME_ASSIGNMENT ( #16, #76, ( #158 ) ) ;
#34 = VERTEX_POINT ( 'NONE', #17 ) ;
#35 = DIRECTION ( 'NONE',  ( 1.000000000000000000, 0.0000000000000000000, 0.0000000000000000000 ) ) ;
#36 = CARTESIAN_POINT ( 'NONE',  ( 3.000000000000000000, 0.0000000000000000000, 6.250000000000000000 ) ) ;
#37 = PRODUCT_RELATED_PRODUCT_CATEGORY ( 'detail', '', ( #104 ) ) ;
#38 = AXIS2_PLACEMENT_3D ( 'NONE', #100, #50, #116 ) ;
#39 = EDGE_LOOP ( 'NONE', ( #55, #102 ) ) ;
#40 = DIRECTION ( 'NONE',  ( 0.0000000000000000000, 0.0000000000000000000, 1.000000000000000000 ) ) ;
#41 = DIRECTION ( 'NONE',  ( -1.000000000000000000, -0.0000000000000000000, -0.0000000000000000000 ) ) ;
#42 = COORDINATED_UNIVERSAL_TIME_OFFSET ( 5, 0, .BEHIND. ) ;
#43 = ADVANCED_FACE ( 'NONE', ( #48 ), #10, .T. ) ;
#44 = CIRCLE ( 'NONE', #11, 6.250000000000000000 ) ;
#45 = AXIS2_PLACEMENT_3D ( 'NONE', #20, #49, #137 ) ;
#46 = PERSON_AND_ORGANIZATION ( #127, #53 ) ;
#47 = DATE_AND_TIME ( #150, #171 ) ;
#48 = FACE_OUTER_BOUND ( 'NONE', #58, .T. ) ;
#49 = DIRECTION ( 'NONE',  ( 0.0000000000000000000, 0.0000000000000000000, 1.000000000000000000 ) ) ;
#50 = DIRECTION ( 'NONE',  ( 1.000000000000000000, 0.0000000000000000000, 0.0000000000000000000 ) ) ;
#51 = LOCAL_TIME ( 10, 19, 1.000000000000000000, #164 ) ;
#52 = PERSON_AND_ORGANIZATION_ROLE ( 'creator' ) ;
#53 = ORGANIZATION ( 'UNSPECIFIED', 'UNSPECIFIED', '' ) ;
#54 = EDGE_CURVE ( 'NONE', #34, #162, #44, .T. ) ;
#55 = ORIENTED_EDGE ( 'NONE', *, *, #119, .F. ) ;
#56 = VERTEX_POINT ( 'NONE', #26 ) ;
#57 = PERSON_AND_ORGANIZATION ( #127, #53 ) ;
#58 = EDGE_LOOP ( 'NONE', ( #2, #107, #18, #121 ) ) ;
#59 = EDGE_LOOP ( 'NONE', ( #71, #93, #72, #84 ) ) ;
#60 = APPROVAL ( #98, 'UNSPECIFIED' ) ;
#61 = APPLICATION_PROTOCOL_DEFINITION ( 'international standard', 'config_control_design', 1994, #126 ) ;
#62 = APPLICATION_PROTOCOL_DEFINITION ( 'international standard', 'config_control_design', 1994, #4 ) ;
#63 = PERSON_AND_ORGANIZATION ( #127, #53 ) ;
#64 = EDGE_CURVE ( 'NONE', #162, #34, #15, .T. ) ;
#65 = CARTESIAN_POINT ( 'NONE',  ( 3.000000000000000000, 0.0000000000000000000, 0.0000000000000000000 ) ) ;
#66 = DIRECTION ( 'NONE',  ( 0.0000000000000000000, 0.0000000000000000000, 1.000000000000000000 ) ) ;
#67 = PLANE ( 'NONE',  #28 ) ;
#68 = LINE ( 'NONE', #140, #166 ) ;
#69 = DATE_AND_TIME ( #153, #88 ) ;
#70 = DATE_AND_TIME ( #99, #111 ) ;
#71 = ORIENTED_EDGE ( 'NONE', *, *, #64, .F. ) ;
#72 = ORIENTED_EDGE ( 'NONE', *, *, #138, .T. ) ;
#73 =( NAMED_UNIT ( * ) PLANE_ANGLE_UNIT ( ) SI_UNIT ( $, .RADIAN. ) );
#74 = APPROVAL_ROLE ( '' ) ;
#75 = APPROVAL_PERSON_ORGANIZATION ( #145, #130, #74 ) ;
#76 = DATE_TIME_ROLE ( 'classification_date' ) ;
#77 = DIRECTION ( 'NONE',  ( 0.0000000000000000000, 0.0000000000000000000, -1.000000000000000000 ) ) ;
#78 = CARTESIAN_POINT ( 'NONE',  ( 3.000000000000000000, 0.0000000000000000000, 0.0000000000000000000 ) ) ;
#79 = DESIGN_CONTEXT ( 'detailed design', #126, 'design' ) ;
#80 = ADVANCED_FACE ( 'NONE', ( #165 ), #67, .T. ) ;
#81 = ADVANCED_FACE ( 'NONE', ( #113 ), #92, .T. ) ;
#82 = LOCAL_TIME ( 10, 19, 1.000000000000000000, #142 ) ;
#83 = DIRECTION ( 'NONE',  ( -1.000000000000000000, -0.0000000000000000000, -0.0000000000000000000 ) ) ;
#84 = ORIENTED_EDGE ( 'NONE', *, *, #146, .F. ) ;
#85 = SECURITY_CLASSIFICATION_LEVEL ( 'unclassified' ) ;
#86 = CC_DESIGN_APPROVAL ( #60, ( #158 ) ) ;
#87 = CC_DESIGN_PERSON_AND_ORGANIZATION_ASSIGNMENT ( #9, #151, ( #104 ) ) ;
#88 = LOCAL_TIME ( 10, 19, 1.000000000000000000, #95 ) ;
#89 =( NAMED_UNIT ( * ) SI_UNIT ( $, .STERADIAN. ) SOLID_ANGLE_UNIT ( ) );
#90 = PERSON_AND_ORGANIZATION_ROLE ( 'creator' ) ;
#91 = AXIS2_PLACEMENT_3D ( 'NONE', #78, #41, #40 ) ;
#92 = CYLINDRICAL_SURFACE ( 'NONE', #91, 6.250000000000000000 ) ;
#93 = ORIENTED_EDGE ( 'NONE', *, *, #163, .T. ) ;
#94 = DIRECTION ( 'NONE',  ( 1.000000000000000000, 0.0000000000000000000, 0.0000000000000000000 ) ) ;
#95 = COORDINATED_UNIVERSAL_TIME_OFFSET ( 5, 0, .BEHIND. ) ;
#96 = PRODUCT_DEFINITION ( 'UNKNOWN', '', #122, #79 ) ;
#97 = MANIFOLD_SOLID_BREP ( 'Extrude1', #14 ) ;
#98 = APPROVAL_STATUS ( 'not_yet_approved' ) ;
#99 = CALENDAR_DATE ( 2017, 1, 2 ) ;
#100 = CARTESIAN_POINT ( 'NONE',  ( 0.0000000000000000000, 0.0000000000000000000, 0.0000000000000000000 ) ) ;
#101 = APPROVAL_STATUS ( 'not_yet_approved' ) ;
#102 = ORIENTED_EDGE ( 'NONE', *, *, #138, .F. ) ;
#103 = DIRECTION ( 'NONE',  ( 1.000000000000000000, 0.0000000000000000000, 0.0000000000000000000 ) ) ;
#104 = PRODUCT ( 'Web Model 83354', 'Web Model 83354', '', ( #8 ) ) ;
#105 = CC_DESIGN_PERSON_AND_ORGANIZATION_ASSIGNMENT ( #31, #52, ( #122 ) ) ;
#106 = DIRECTION ( 'NONE',  ( -1.000000000000000000, -0.0000000000000000000, -0.0000000000000000000 ) ) ;
#107 = ORIENTED_EDGE ( 'NONE', *, *, #54, .F. ) ;
#108 = ADVANCED_FACE ( 'NONE', ( #124 ), #174, .F. ) ;
#109 = ORIENTED_EDGE ( 'NONE', *, *, #64, .T. ) ;
#110 = ORIENTED_EDGE ( 'NONE', *, *, #54, .T. ) ;
#111 = LOCAL_TIME ( 10, 19, 1.000000000000000000, #42 ) ;
#112 = EDGE_LOOP ( 'NONE', ( #110, #109 ) ) ;
#113 = FACE_OUTER_BOUND ( 'NONE', #59, .T. ) ;
#114 = APPROVAL_STATUS ( 'not_yet_approved' ) ;
#115 = CC_DESIGN_PERSON_AND_ORGANIZATION_ASSIGNMENT ( #57, #154, ( #122 ) ) ;
#116 = DIRECTION ( 'NONE',  ( 0.0000000000000000000, 0.0000000000000000000, -1.000000000000000000 ) ) ;
#117 = CARTESIAN_POINT ( 'NONE',  ( 3.000000000000000000, 0.0000000000000000000, 0.0000000000000000000 ) ) ;
#118 = PERSON_AND_ORGANIZATION ( #127, #53 ) ;
#119 = EDGE_CURVE ( 'NONE', #56, #128, #1, .T. ) ;
#120 = CC_DESIGN_SECURITY_CLASSIFICATION ( #158, ( #122 ) ) ;
#121 = ORIENTED_EDGE ( 'NONE', *, *, #119, .T. ) ;
#122 = PRODUCT_DEFINITION_FORMATION_WITH_SPECIFIED_SOURCE ( 'ANY', '', #104, .NOT_KNOWN. ) ;
#123 = CARTESIAN_POINT ( 'NONE',  ( 0.0000000000000000000, 0.0000000000000000000, 0.0000000000000000000 ) ) ;
#124 = FACE_OUTER_BOUND ( 'NONE', #39, .T. ) ;
#125 = DIRECTION ( 'NONE',  ( -1.000000000000000000, -0.0000000000000000000, -0.0000000000000000000 ) ) ;
#126 = APPLICATION_CONTEXT ( 'configuration controlled 3d designs of mechanical parts and assemblies' ) ;
#127 = PERSON ( 'UNSPECIFIED', 'UNSPECIFIED', 'UNSPECIFIED', ('UNSPECIFIED'), ('UNSPECIFIED'), ('UNSPECIFIED') ) ;
#128 = VERTEX_POINT ( 'NONE', #132 ) ;
#129 = PRODUCT_DEFINITION_SHAPE ( 'NONE', 'NONE',  #96 ) ;
#130 = APPROVAL ( #114, 'UNSPECIFIED' ) ;
#131 = DIRECTION ( 'NONE',  ( 0.0000000000000000000, 0.0000000000000000000, -1.000000000000000000 ) ) ;
#132 = CARTESIAN_POINT ( 'NONE',  ( 0.0000000000000000000, 7.654042494670957600E-016, -6.250000000000000000 ) ) ;
#133 = CARTESIAN_POINT ( 'NONE',  ( 3.000000000000000000, 0.0000000000000000000, 0.0000000000000000000 ) ) ;
#134 = ADVANCED_BREP_SHAPE_REPRESENTATION ( 'Web Model 83354', ( #97, #45 ), #32 ) ;
#135 = APPROVAL_DATE_TIME ( #29, #136 ) ;
#136 = APPROVAL ( #101, 'UNSPECIFIED' ) ;
#137 = DIRECTION ( 'NONE',  ( 1.000000000000000000, 0.0000000000000000000, 0.0000000000000000000 ) ) ;
#138 = EDGE_CURVE ( 'NONE', #128, #56, #13, .T. ) ;
#139 = UNCERTAINTY_MEASURE_WITH_UNIT (LENGTH_MEASURE( 1.000000000000000100E-005 ), #167, 'distance_accuracy_value', 'NONE');
#140 = CARTESIAN_POINT ( 'NONE',  ( 3.000000000000000000, 7.654042494670957600E-016, -6.250000000000000000 ) ) ;
#141 = CC_DESIGN_APPROVAL ( #130, ( #96 ) ) ;
#142 = COORDINATED_UNIVERSAL_TIME_OFFSET ( 5, 0, .BEHIND. ) ;
#143 = CARTESIAN_POINT ( 'NONE',  ( 3.000000000000000000, 7.654042494670957600E-016, -6.250000000000000000 ) ) ;
#144 = CARTESIAN_POINT ( 'NONE',  ( 3.000000000000000000, 0.0000000000000000000, 0.0000000000000000000 ) ) ;
#145 = PERSON_AND_ORGANIZATION ( #127, #53 ) ;
#146 = EDGE_CURVE ( 'NONE', #34, #56, #21, .T. ) ;
#147 = SHAPE_DEFINITION_REPRESENTATION ( #129, #134 ) ;
#148 = VECTOR ( 'NONE', #125, 1000.000000000000000 ) ;
#149 = CC_DESIGN_PERSON_AND_ORGANIZATION_ASSIGNMENT ( #118, #90, ( #96 ) ) ;
#150 = CALENDAR_DATE ( 2017, 1, 2 ) ;
#151 = PERSON_AND_ORGANIZATION_ROLE ( 'design_owner' ) ;
#152 = CC_DESIGN_APPROVAL ( #136, ( #122 ) ) ;
#153 = CALENDAR_DATE ( 2017, 1, 2 ) ;
#154 = PERSON_AND_ORGANIZATION_ROLE ( 'design_supplier' ) ;
#155 = APPROVAL_PERSON_ORGANIZATION ( #46, #136, #22 ) ;
#156 = PERSON_AND_ORGANIZATION ( #127, #53 ) ;
#157 = DIRECTION ( 'NONE',  ( 1.000000000000000000, 0.0000000000000000000, 0.0000000000000000000 ) ) ;
#158 = SECURITY_CLASSIFICATION ( '', '', #85 ) ;
#159 = DIRECTION ( 'NONE',  ( 1.000000000000000000, 0.0000000000000000000, 0.0000000000000000000 ) ) ;
#160 = DIRECTION ( 'NONE',  ( 0.0000000000000000000, 0.0000000000000000000, -1.000000000000000000 ) ) ;
#161 = COORDINATED_UNIVERSAL_TIME_OFFSET ( 5, 0, .BEHIND. ) ;
#162 = VERTEX_POINT ( 'NONE', #143 ) ;
#163 = EDGE_CURVE ( 'NONE', #162, #128, #68, .T. ) ;
#164 = COORDINATED_UNIVERSAL_TIME_OFFSET ( 5, 0, .BEHIND. ) ;
#165 = FACE_OUTER_BOUND ( 'NONE', #112, .T. ) ;
#166 = VECTOR ( 'NONE', #83, 1000.000000000000000 ) ;
#167 =( LENGTH_UNIT ( ) NAMED_UNIT ( * ) SI_UNIT ( .MILLI., .METRE. ) );
#168 = CC_DESIGN_DATE_AND_TIME_ASSIGNMENT ( #69, #19, ( #96 ) ) ;
#169 = AXIS2_PLACEMENT_3D ( 'NONE', #65, #157, #77 ) ;
#170 = AXIS2_PLACEMENT_3D ( 'NONE', #144, #106, #66 ) ;
#171 = LOCAL_TIME ( 10, 19, 1.000000000000000000, #161 ) ;
#172 = AXIS2_PLACEMENT_3D ( 'NONE', #123, #35, #6 ) ;
#173 = CC_DESIGN_PERSON_AND_ORGANIZATION_ASSIGNMENT ( #156, #5, ( #158 ) ) ;
#174 = PLANE ( 'NONE',  #3 ) ;
#175 = CARTESIAN_POINT ( 'NONE',  ( 0.0000000000000000000, 0.0000000000000000000, 0.0000000000000000000 ) ) ;
ENDSEC;
END-ISO-10303-21;
