ISO-10303-21;
HEADER;
FILE_DESCRIPTION (( 'STEP AP203' ),
    '1' );
FILE_NAME ('Web Model 66759.STEP',
    '2017-01-31T19:40:02',
    ( '' ),
    ( '' ),
    'SwSTEP 2.0',
    'SolidWorks 2016',
    '' );
FILE_SCHEMA (( 'CONFIG_CONTROL_DESIGN' ));
ENDSEC;

DATA;
#1 = CARTESIAN_POINT ( 'NONE',  ( 0.0000000000000000000, 0.0000000000000000000, 0.0000000000000000000 ) ) ;
#2 = CARTESIAN_POINT ( 'NONE',  ( 0.0000000000000000000, 0.0000000000000000000, 0.0000000000000000000 ) ) ;
#3 = ORIENTED_EDGE ( 'NONE', *, *, #207, .T. ) ;
#4 = CARTESIAN_POINT ( 'NONE',  ( 10.06944472837760100, -1.849726988369829900E-015, -0.0003850779603274720000 ) ) ;
#5 = CARTESIAN_POINT ( 'NONE',  ( 12.50000000000000000, -12.50000000000000000, -0.001732850113905760400 ) ) ;
#6 = SECURITY_CLASSIFICATION_LEVEL ( 'unclassified' ) ;
#7 = CARTESIAN_POINT ( 'NONE',  ( 0.0000000000000000000, 0.0000000000000000000, 0.0000000000000000000 ) ) ;
#8 = EDGE_LOOP ( 'NONE', ( #45, #237 ) ) ;
#9 = APPROVAL_ROLE ( '' ) ;
#10 = AXIS2_PLACEMENT_3D ( 'NONE', #38, #221, #128 ) ;
#11 = PERSON ( 'UNSPECIFIED', 'UNSPECIFIED', 'UNSPECIFIED', ('UNSPECIFIED'), ('UNSPECIFIED'), ('UNSPECIFIED') ) ;
#12 = DIRECTION ( 'NONE',  ( -1.694065894508600700E-020, 1.694065894508600700E-020, 1.000000000000000000 ) ) ;
#13 = EDGE_LOOP ( 'NONE', ( #169, #129, #265, #282 ) ) ;
#14 = AXIS2_PLACEMENT_3D ( 'NONE', #261, #69, #161 ) ;
#15 = EDGE_CURVE ( 'NONE', #30, #65, #197, .T. ) ;
#16 = ORGANIZATION ( 'UNSPECIFIED', 'UNSPECIFIED', '' ) ;
#17 = CARTESIAN_POINT ( 'NONE',  ( 0.0000000000000000000, 10.06944472837760100, -0.0003850779603274720000 ) ) ;
#18 = CARTESIAN_POINT ( 'NONE',  ( 0.0000000000000000000, 0.0000000000000000000, 0.0000000000000000000 ) ) ;
#19 = ORIENTED_EDGE ( 'NONE', *, *, #154, .T. ) ;
#20 = ORIENTED_EDGE ( 'NONE', *, *, #194, .T. ) ;
#21 = CARTESIAN_POINT ( 'NONE',  ( 5.902777868564030900, -5.902777868564039700, 5.308337926064510600E-005 ) ) ;
#22 = DIRECTION ( 'NONE',  ( 0.0000000000000000000, -0.0000000000000000000, 1.000000000000000000 ) ) ;
#23 = CARTESIAN_POINT ( 'NONE',  ( -10.06944472837760300, 10.06944472837760300, -0.0003850779603274720000 ) ) ;
#24 = DIRECTION ( 'NONE',  ( 1.000000000000000000, 0.0000000000000000000, 0.0000000000000000000 ) ) ;
#25 = CARTESIAN_POINT ( 'NONE',  ( -1.736111111390969700, -1.736111111390969700, 0.0000000000000000000 ) ) ;
#26 =( NAMED_UNIT ( * ) SI_UNIT ( $, .STERADIAN. ) SOLID_ANGLE_UNIT ( ) );
#27 = ORIENTED_EDGE ( 'NONE', *, *, #271, .F. ) ;
#28 = DIRECTION ( 'NONE',  ( 1.734723475976810100E-020, 3.407667765548950100E-037, 1.000000000000000000 ) ) ;
#29 = CARTESIAN_POINT ( 'NONE',  ( 0.0000000000000000000, 12.50000000000000000, -0.001732850113905760000 ) ) ;
#30 = VERTEX_POINT ( 'NONE', #283 ) ;
#31 = PERSON_AND_ORGANIZATION_ROLE ( 'design_owner' ) ;
#32 = APPLICATION_CONTEXT ( 'configuration controlled 3d designs of mechanical parts and assemblies' ) ;
#33 = CIRCLE ( 'NONE', #252, 12.50000000000000000 ) ;
#34 = CALENDAR_DATE ( 2017, 31, 1 ) ;
#35 = CC_DESIGN_DATE_AND_TIME_ASSIGNMENT ( #218, #100, ( #220 ) ) ;
#36 = APPROVAL_PERSON_ORGANIZATION ( #48, #222, #78 ) ;
#37 = CARTESIAN_POINT ( 'NONE',  ( -12.50000000000000000, 12.50000000000000000, -0.001732850113905760400 ) ) ;
#38 = CARTESIAN_POINT ( 'NONE',  ( 3.827021247335479800E-016, 1.632765987455498600E-015, -0.001732850113905759800 ) ) ;
#39 = DIRECTION ( 'NONE',  ( -1.694065894508600700E-020, 1.694065894508600700E-020, 1.000000000000000000 ) ) ;
#40 = CC_DESIGN_APPROVAL ( #222, ( #220 ) ) ;
#41 = ORIENTED_EDGE ( 'NONE', *, *, #194, .F. ) ;
#42 = CARTESIAN_POINT ( 'NONE',  ( 0.0000000000000000000, 12.50000000000000000, -0.001732850113905760000 ) ) ;
#43 = CARTESIAN_POINT ( 'NONE',  ( -1.736111111390970000, 1.063061457764560100E-016, 0.0000000000000000000 ) ) ;
#44 = CARTESIAN_POINT ( 'NONE',  ( -1.736111111390969700, -1.736111111390969700, 0.0000000000000000000 ) ) ;
#45 = ORIENTED_EDGE ( 'NONE', *, *, #15, .F. ) ;
#46 = PRODUCT_DEFINITION ( 'UNKNOWN', '', #266, #246 ) ;
#47 = CARTESIAN_POINT ( 'NONE',  ( 0.0000000000000000000, 5.902777868564039700, 5.308337926064509900E-005 ) ) ;
#48 = PERSON_AND_ORGANIZATION ( #11, #16 ) ;
#49 = CARTESIAN_POINT ( 'NONE',  ( 1.736111111390969700, 1.736111111390969700, 0.0000000000000000000 ) ) ;
#50 =( LENGTH_UNIT ( ) NAMED_UNIT ( * ) SI_UNIT ( .MILLI., .METRE. ) );
#51 = CARTESIAN_POINT ( 'NONE',  ( -1.736111111390970000, 1.063061457764560100E-016, 0.0000000000000000000 ) ) ;
#52 = CIRCLE ( 'NONE', #10, 12.50000000000000000 ) ;
#53 = CARTESIAN_POINT ( 'NONE',  ( 0.0000000000000000000, 0.0000000000000000000, 0.0000000000000000000 ) ) ;
#54 = ADVANCED_FACE ( 'NONE', ( #62 ), #114, .T. ) ;
#55 = LINE ( 'NONE', #145, #183 ) ;
#56 = CC_DESIGN_SECURITY_CLASSIFICATION ( #220, ( #266 ) ) ;
#57 = PERSON_AND_ORGANIZATION ( #11, #16 ) ;
#58 = CIRCLE ( 'NONE', #303, 12.50000000000000000 ) ;
#59 = CARTESIAN_POINT ( 'NONE',  ( -12.50000000000000000, -12.50000000000000000, -0.001732850113905760400 ) ) ;
#60 = CARTESIAN_POINT ( 'NONE',  ( 12.50000000000000000, -2.296212748401289900E-015, -0.001732850113905760000 ) ) ;
#61 = VERTEX_POINT ( 'NONE', #140 ) ;
#62 = FACE_OUTER_BOUND ( 'NONE', #8, .T. ) ;
#63 = APPROVAL_DATE_TIME ( #294, #199 ) ;
#64 = EDGE_CURVE ( 'NONE', #65, #272, #170, .T. ) ;
#65 = VERTEX_POINT ( 'NONE', #305 ) ;
#66 = CARTESIAN_POINT ( 'NONE',  ( 1.736111111390969700, 1.736111111390969700, 0.0000000000000000000 ) ) ;
#67 = CARTESIAN_POINT ( 'NONE',  ( 0.0000000000000000000, 5.902777868564039700, 5.308337926064509900E-005 ) ) ;
#68 = VERTEX_POINT ( 'NONE', #143 ) ;
#69 = DIRECTION ( 'NONE',  ( -1.694065894508600700E-020, 1.694065894508600700E-020, 1.000000000000000000 ) ) ;
#70 = FACE_OUTER_BOUND ( 'NONE', #292, .T. ) ;
#71 = CARTESIAN_POINT ( 'NONE',  ( -2.126122915529110000E-016, -1.736111111390970000, 0.0000000000000000000 ) ) ;
#72 = CARTESIAN_POINT ( 'NONE',  ( 0.0000000000000000000, 0.0000000000000000000, 0.0000000000000000000 ) ) ;
#73 = DIRECTION ( 'NONE',  ( 0.0000000000000000000, -0.0000000000000000000, 1.000000000000000000 ) ) ;
#74 = CARTESIAN_POINT ( 'NONE',  ( 0.0000000000000000000, 10.06944472837760100, -0.0003850779603274720000 ) ) ;
#75 = APPLICATION_PROTOCOL_DEFINITION ( 'international standard', 'config_control_design', 1994, #281 ) ;
#76 = ORIENTED_EDGE ( 'NONE', *, *, #207, .F. ) ;
#77 = APPROVAL_STATUS ( 'not_yet_approved' ) ;
#78 = APPROVAL_ROLE ( '' ) ;
#79 = PERSON_AND_ORGANIZATION_ROLE ( 'creator' ) ;
#80 = ADVANCED_FACE ( 'NONE', ( #70 ), #157, .T. ) ;
#81 = MECHANICAL_CONTEXT ( 'NONE', #281, 'mechanical' ) ;
#82 = CARTESIAN_POINT ( 'NONE',  ( -1.233151325579890000E-015, -10.06944472837760100, -0.0003850779603274720000 ) ) ;
#83 = B_SPLINE_CURVE_WITH_KNOTS ( 'NONE', 3,
 ( #120, #213, #189, #74, #166 ),
 .UNSPECIFIED., .F., .F.,
 ( 4, 1, 4 ),
 ( 0.0000000000000000000, 0.4166666577313750100, 1.000000000000000000 ),
 .UNSPECIFIED. ) ;
#84 = CARTESIAN_POINT ( 'NONE',  ( 12.50000000000000000, 12.50000000000000000, -0.001732850113905760400 ) ) ;
#85 = COORDINATED_UNIVERSAL_TIME_OFFSET ( 5, 0, .BEHIND. ) ;
#86 = CALENDAR_DATE ( 2017, 31, 1 ) ;
#87 = CARTESIAN_POINT ( 'NONE',  ( 0.0000000000000000000, 5.902777868564039700, 5.308337926064509900E-005 ) ) ;
#88 = CARTESIAN_POINT ( 'NONE',  ( 5.902777868564039700, 5.902777868564030900, 5.308337926064510600E-005 ) ) ;
#89 = ORIENTED_EDGE ( 'NONE', *, *, #296, .F. ) ;
#90 =( BOUNDED_SURFACE ( )  B_SPLINE_SURFACE ( 3, 2, ( 
 ( #98, #7, #214, #264, #123, #287, #248, #18, #225 ),
 ( #134, #180, #43, #44, #299, #202, #277, #66, #201 ),
 ( #87, #132, #228, #204, #279, #131, #178, #88, #67 ),
 ( #300, #106, #155, #108, #153, #250, #278, #109, #17 ),
 ( #42, #37, #151, #59, #150, #104, #60, #84, #127 ) ),
 .UNSPECIFIED., .F., .T., .T. ) 
 B_SPLINE_SURFACE_WITH_KNOTS ( ( 4, 1, 4 ),
 ( 3, 2, 2, 2, 3 ),
 ( 0.0000000000000000000, 0.4166666577313750100, 1.000000000000000000 ),
 ( 0.0000000000000000000, 90.00000000000000000, 180.0000000000000000, 270.0000000000000000, 360.0000000000000000 ),
 .UNSPECIFIED. ) 
 GEOMETRIC_REPRESENTATION_ITEM ( )  RATIONAL_B_SPLINE_SURFACE ( (
 ( 1.000000000000000000, 0.7071067811865480200, 1.000000000000000000, 0.7071067811865480200, 1.000000000000000000, 0.7071067811865480200, 1.000000000000000000, 0.7071067811865480200, 1.000000000000000000),
 ( 1.000000000000000000, 0.7071067811865480200, 1.000000000000000000, 0.7071067811865480200, 1.000000000000000000, 0.7071067811865480200, 1.000000000000000000, 0.7071067811865480200, 1.000000000000000000),
 ( 1.000000000000000000, 0.7071067811865480200, 1.000000000000000000, 0.7071067811865480200, 1.000000000000000000, 0.7071067811865480200, 1.000000000000000000, 0.7071067811865480200, 1.000000000000000000),
 ( 1.000000000000000000, 0.7071067811865480200, 1.000000000000000000, 0.7071067811865480200, 1.000000000000000000, 0.7071067811865480200, 1.000000000000000000, 0.7071067811865480200, 1.000000000000000000),
 ( 1.000000000000000000, 0.7071067811865480200, 1.000000000000000000, 0.7071067811865480200, 1.000000000000000000, 0.7071067811865480200, 1.000000000000000000, 0.7071067811865480200, 1.000000000000000000) ) ) 
 REPRESENTATION_ITEM ( '' )  SURFACE ( )  );
#91 = DIRECTION ( 'NONE',  ( 1.734723475976810100E-020, 3.407667765548950100E-037, 1.000000000000000000 ) ) ;
#92 = CARTESIAN_POINT ( 'NONE',  ( 0.0000000000000000000, 1.776356839400250100E-015, -4.000000000000000000 ) ) ;
#93 = DIRECTION ( 'NONE',  ( 1.000000000000000000, 0.0000000000000000000, 0.0000000000000000000 ) ) ;
#94 = CALENDAR_DATE ( 2017, 31, 1 ) ;
#95 = CARTESIAN_POINT ( 'NONE',  ( 0.0000000000000000000, 1.776356839400250100E-015, -4.000000000000000000 ) ) ;
#96 = CARTESIAN_POINT ( 'NONE',  ( -5.902777868564039700, -5.902777868564039700, 5.308337926064510600E-005 ) ) ;
#97 = EDGE_CURVE ( 'NONE', #65, #30, #33, .T. ) ;
#98 = CARTESIAN_POINT ( 'NONE',  ( 0.0000000000000000000, 0.0000000000000000000, 0.0000000000000000000 ) ) ;
#99 = CARTESIAN_POINT ( 'NONE',  ( -12.50000000000000000, 7.654042494670959600E-016, -0.001732850113905760000 ) ) ;
#100 = DATE_TIME_ROLE ( 'classification_date' ) ;
#101 = ADVANCED_FACE ( 'NONE', ( #130 ), #190, .T. ) ;
#102 = PERSON_AND_ORGANIZATION ( #11, #16 ) ;
#103 = DIRECTION ( 'NONE',  ( 1.000000000000000000, 0.0000000000000000000, 1.694065894508600700E-020 ) ) ;
#104 = CARTESIAN_POINT ( 'NONE',  ( 12.50000000000000000, -12.50000000000000000, -0.001732850113905760400 ) ) ;
#105 = VERTEX_POINT ( 'NONE', #53 ) ;
#106 = CARTESIAN_POINT ( 'NONE',  ( -10.06944472837760300, 10.06944472837760300, -0.0003850779603274720000 ) ) ;
#107 = CIRCLE ( 'NONE', #14, 12.50000000000000000 ) ;
#108 = CARTESIAN_POINT ( 'NONE',  ( -10.06944472837760300, -10.06944472837760300, -0.0003850779603274720000 ) ) ;
#109 = CARTESIAN_POINT ( 'NONE',  ( 10.06944472837760300, 10.06944472837760300, -0.0003850779603274720000 ) ) ;
#110 = ORIENTED_EDGE ( 'NONE', *, *, #97, .T. ) ;
#111 = ADVANCED_BREP_SHAPE_REPRESENTATION ( 'Web Model 66759', ( #270, #176 ), #217 ) ;
#112 = PERSON_AND_ORGANIZATION ( #11, #16 ) ;
#113 = CARTESIAN_POINT ( 'NONE',  ( 1.736111111390970000, -3.189184373293670200E-016, 0.0000000000000000000 ) ) ;
#114 = PLANE ( 'NONE',  #172 ) ;
#115 = CARTESIAN_POINT ( 'NONE',  ( 1.736111111390969700, -1.736111111390969700, 0.0000000000000000000 ) ) ;
#116 = CARTESIAN_POINT ( 'NONE',  ( 0.0000000000000000000, 10.06944472837760100, -0.0003850779603274720000 ) ) ;
#117 = CARTESIAN_POINT ( 'NONE',  ( 12.50000000000000000, -2.296212748401289900E-015, -0.001732850113905760000 ) ) ;
#118 = CARTESIAN_POINT ( 'NONE',  ( 3.827021247335479800E-016, 0.0000000000000000000, -4.000000000000000000 ) ) ;
#119 = CIRCLE ( 'NONE', #273, 12.50000000000000000 ) ;
#120 = CARTESIAN_POINT ( 'NONE',  ( 0.0000000000000000000, 0.0000000000000000000, 0.0000000000000000000 ) ) ;
#121 = APPROVAL_ROLE ( '' ) ;
#122 = CARTESIAN_POINT ( 'NONE',  ( -12.50000000000000000, 12.50000000000000000, -0.001732850113905760400 ) ) ;
#123 = CARTESIAN_POINT ( 'NONE',  ( 0.0000000000000000000, 0.0000000000000000000, 0.0000000000000000000 ) ) ;
#124 = PERSON_AND_ORGANIZATION ( #11, #16 ) ;
#125 = EDGE_CURVE ( 'NONE', #105, #61, #83, .T. ) ;
#126 = CARTESIAN_POINT ( 'NONE',  ( -7.228818022814780300E-016, -5.902777868564039700, 5.308337926064509900E-005 ) ) ;
#127 = CARTESIAN_POINT ( 'NONE',  ( 0.0000000000000000000, 12.50000000000000000, -0.001732850113905760000 ) ) ;
#128 = DIRECTION ( 'NONE',  ( 1.000000000000000000, 0.0000000000000000000, 1.694065894508600700E-020 ) ) ;
#129 = ORIENTED_EDGE ( 'NONE', *, *, #125, .T. ) ;
#130 = FACE_OUTER_BOUND ( 'NONE', #13, .T. ) ;
#131 = CARTESIAN_POINT ( 'NONE',  ( 5.902777868564030900, -5.902777868564039700, 5.308337926064510600E-005 ) ) ;
#132 = CARTESIAN_POINT ( 'NONE',  ( -5.902777868564039700, 5.902777868564039700, 5.308337926064510600E-005 ) ) ;
#133 = APPROVAL_DATE_TIME ( #269, #222 ) ;
#134 = CARTESIAN_POINT ( 'NONE',  ( 0.0000000000000000000, 1.736111111390970000, 0.0000000000000000000 ) ) ;
#135 = ORIENTED_EDGE ( 'NONE', *, *, #235, .T. ) ;
#136 = DIRECTION ( 'NONE',  ( 1.000000000000000000, 0.0000000000000000000, 0.0000000000000000000 ) ) ;
#137 = VECTOR ( 'NONE', #205, 1000.000000000000000 ) ;
#138 = CARTESIAN_POINT ( 'NONE',  ( -5.902777868564039700, 3.614409011407390200E-016, 5.308337926064509900E-005 ) ) ;
#139 = CARTESIAN_POINT ( 'NONE',  ( 0.0000000000000000000, 0.0000000000000000000, 0.0000000000000000000 ) ) ;
#140 = CARTESIAN_POINT ( 'NONE',  ( -9.629649721936179300E-032, 12.50000000000000400, -0.001732850113905760000 ) ) ;
#141 = PERSON_AND_ORGANIZATION ( #11, #16 ) ;
#142 = CARTESIAN_POINT ( 'NONE',  ( -1.233151325579890000E-015, -10.06944472837760100, -0.0003850779603274720000 ) ) ;
#143 = CARTESIAN_POINT ( 'NONE',  ( 12.50000000000000000, 1.632765987455498600E-015, -0.001732850113905759600 ) ) ;
#144 = CALENDAR_DATE ( 2017, 31, 1 ) ;
#145 = CARTESIAN_POINT ( 'NONE',  ( 12.50000000000000000, 1.776356839400250100E-015, -4.000000000000000000 ) ) ;
#146 = CARTESIAN_POINT ( 'NONE',  ( -1.530808498934190100E-015, -12.50000000000000000, -0.001732850113905760000 ) ) ;
#147 = APPROVAL_STATUS ( 'not_yet_approved' ) ;
#148 = DATE_AND_TIME ( #275, #229 ) ;
#149 = COORDINATED_UNIVERSAL_TIME_OFFSET ( 5, 0, .BEHIND. ) ;
#150 = CARTESIAN_POINT ( 'NONE',  ( -1.530808498934190100E-015, -12.50000000000000000, -0.001732850113905760000 ) ) ;
#151 = CARTESIAN_POINT ( 'NONE',  ( -12.50000000000000000, 7.654042494670959600E-016, -0.001732850113905760000 ) ) ;
#152 = LOCAL_TIME ( 14, 40, 2.000000000000000000, #85 ) ;
#153 = CARTESIAN_POINT ( 'NONE',  ( -1.233151325579890000E-015, -10.06944472837760100, -0.0003850779603274720000 ) ) ;
#154 = EDGE_CURVE ( 'NONE', #30, #68, #55, .T. ) ;
#155 = CARTESIAN_POINT ( 'NONE',  ( -10.06944472837760100, 6.165756627899430100E-016, -0.0003850779603274720000 ) ) ;
#156 = VERTEX_POINT ( 'NONE', #259 ) ;
#157 = CYLINDRICAL_SURFACE ( 'NONE', #186, 12.50000000000000000 ) ;
#158 = PRODUCT_RELATED_PRODUCT_CATEGORY ( 'detail', '', ( #219 ) ) ;
#159 = CARTESIAN_POINT ( 'NONE',  ( -5.902777868564039700, 5.902777868564039700, 5.308337926064510600E-005 ) ) ;
#160 = APPROVAL_PERSON_ORGANIZATION ( #124, #199, #121 ) ;
#161 = DIRECTION ( 'NONE',  ( 1.000000000000000000, 0.0000000000000000000, 1.694065894508600700E-020 ) ) ;
#162 = CARTESIAN_POINT ( 'NONE',  ( 3.827021247335479800E-016, 0.0000000000000000000, -4.000000000000000000 ) ) ;
#163 = CARTESIAN_POINT ( 'NONE',  ( 10.06944472837760300, -10.06944472837760300, -0.0003850779603274720000 ) ) ;
#164 = CARTESIAN_POINT ( 'NONE',  ( 10.06944472837760300, 10.06944472837760300, -0.0003850779603274720000 ) ) ;
#165 = DIRECTION ( 'NONE',  ( -1.000000000000000000, 0.0000000000000000000, -0.0000000000000000000 ) ) ;
#166 = CARTESIAN_POINT ( 'NONE',  ( -9.629649721936179300E-032, 12.50000000000000400, -0.001732850113905760000 ) ) ;
#167 = APPLICATION_PROTOCOL_DEFINITION ( 'international standard', 'config_control_design', 1994, #32 ) ;
#168 = CARTESIAN_POINT ( 'NONE',  ( 12.50000000000000000, 12.50000000000000000, -0.001732850113905760400 ) ) ;
#169 = ORIENTED_EDGE ( 'NONE', *, *, #235, .F. ) ;
#170 = LINE ( 'NONE', #254, #137 ) ;
#171 = COORDINATED_UNIVERSAL_TIME_OFFSET ( 5, 0, .BEHIND. ) ;
#172 = AXIS2_PLACEMENT_3D ( 'NONE', #285, #230, #165 ) ;
#173 = CYLINDRICAL_SURFACE ( 'NONE', #293, 12.50000000000000000 ) ;
#174 = CARTESIAN_POINT ( 'NONE',  ( -1.530808498934189900E-015, -12.49999999999999800, -0.001732850113905759600 ) ) ;
#175 = ORIENTED_EDGE ( 'NONE', *, *, #64, .T. ) ;
#176 = AXIS2_PLACEMENT_3D ( 'NONE', #274, #260, #136 ) ;
#177 = DATE_AND_TIME ( #94, #152 ) ;
#178 = CARTESIAN_POINT ( 'NONE',  ( 5.902777868564039700, -1.084322703422220000E-015, 5.308337926064509900E-005 ) ) ;
#179 = FACE_OUTER_BOUND ( 'NONE', #195, .T. ) ;
#180 = CARTESIAN_POINT ( 'NONE',  ( -1.736111111390969700, 1.736111111390969700, 0.0000000000000000000 ) ) ;
#181 = EDGE_LOOP ( 'NONE', ( #249, #135, #20, #3 ) ) ;
#182 = CC_DESIGN_APPROVAL ( #199, ( #46 ) ) ;
#183 = VECTOR ( 'NONE', #28, 1000.000000000000000 ) ;
#184 = PRODUCT_DEFINITION_SHAPE ( 'NONE', 'NONE',  #46 ) ;
#185 = CARTESIAN_POINT ( 'NONE',  ( 0.0000000000000000000, 0.0000000000000000000, 0.0000000000000000000 ) ) ;
#186 = AXIS2_PLACEMENT_3D ( 'NONE', #95, #91, #233 ) ;
#187 = CARTESIAN_POINT ( 'NONE',  ( -10.06944472837760300, -10.06944472837760300, -0.0003850779603274720000 ) ) ;
#188 = CARTESIAN_POINT ( 'NONE',  ( -1.736111111390969700, 1.736111111390969700, 0.0000000000000000000 ) ) ;
#189 = CARTESIAN_POINT ( 'NONE',  ( 0.0000000000000000000, 5.902777868564039700, 5.308337926064509900E-005 ) ) ;
#190 =( BOUNDED_SURFACE ( )  B_SPLINE_SURFACE ( 3, 2, ( 
 ( #258, #72, #262, #139, #2, #253, #1, #232, #185 ),
 ( #209, #188, #51, #25, #71, #115, #113, #49, #234 ),
 ( #211, #159, #138, #96, #304, #21, #231, #284, #47 ),
 ( #116, #23, #206, #187, #142, #163, #4, #164, #192 ),
 ( #236, #122, #99, #263, #146, #5, #117, #168, #29 ) ),
 .UNSPECIFIED., .F., .T., .F. ) 
 B_SPLINE_SURFACE_WITH_KNOTS ( ( 4, 1, 4 ),
 ( 3, 2, 2, 2, 3 ),
 ( 0.0000000000000000000, 0.4166666577313750100, 1.000000000000000000 ),
 ( 0.0000000000000000000, 90.00000000000000000, 180.0000000000000000, 270.0000000000000000, 360.0000000000000000 ),
 .UNSPECIFIED. ) 
 GEOMETRIC_REPRESENTATION_ITEM ( )  RATIONAL_B_SPLINE_SURFACE ( (
 ( 1.000000000000000000, 0.7071067811865480200, 1.000000000000000000, 0.7071067811865480200, 1.000000000000000000, 0.7071067811865480200, 1.000000000000000000, 0.7071067811865480200, 1.000000000000000000),
 ( 1.000000000000000000, 0.7071067811865480200, 1.000000000000000000, 0.7071067811865480200, 1.000000000000000000, 0.7071067811865480200, 1.000000000000000000, 0.7071067811865480200, 1.000000000000000000),
 ( 1.000000000000000000, 0.7071067811865480200, 1.000000000000000000, 0.7071067811865480200, 1.000000000000000000, 0.7071067811865480200, 1.000000000000000000, 0.7071067811865480200, 1.000000000000000000),
 ( 1.000000000000000000, 0.7071067811865480200, 1.000000000000000000, 0.7071067811865480200, 1.000000000000000000, 0.7071067811865480200, 1.000000000000000000, 0.7071067811865480200, 1.000000000000000000),
 ( 1.000000000000000000, 0.7071067811865480200, 1.000000000000000000, 0.7071067811865480200, 1.000000000000000000, 0.7071067811865480200, 1.000000000000000000, 0.7071067811865480200, 1.000000000000000000) ) ) 
 REPRESENTATION_ITEM ( '' )  SURFACE ( )  );
#191 = APPROVAL_STATUS ( 'not_yet_approved' ) ;
#192 = CARTESIAN_POINT ( 'NONE',  ( 0.0000000000000000000, 10.06944472837760100, -0.0003850779603274720000 ) ) ;
#193 = ADVANCED_FACE ( 'NONE', ( #251 ), #90, .T. ) ;
#194 = EDGE_CURVE ( 'NONE', #156, #68, #52, .T. ) ;
#195 = EDGE_LOOP ( 'NONE', ( #301, #110, #19, #41, #89 ) ) ;
#196 = CARTESIAN_POINT ( 'NONE',  ( 0.0000000000000000000, 0.0000000000000000000, 0.0000000000000000000 ) ) ;
#197 = CIRCLE ( 'NONE', #289, 12.50000000000000000 ) ;
#198 = CC_DESIGN_DATE_AND_TIME_ASSIGNMENT ( #148, #212, ( #46 ) ) ;
#199 = APPROVAL ( #191, 'UNSPECIFIED' ) ;
#200 = PERSON_AND_ORGANIZATION ( #11, #16 ) ;
#201 = CARTESIAN_POINT ( 'NONE',  ( 0.0000000000000000000, 1.736111111390970000, 0.0000000000000000000 ) ) ;
#202 = CARTESIAN_POINT ( 'NONE',  ( 1.736111111390969700, -1.736111111390969700, 0.0000000000000000000 ) ) ;
#203 = ORIENTED_EDGE ( 'NONE', *, *, #15, .T. ) ;
#204 = CARTESIAN_POINT ( 'NONE',  ( -5.902777868564039700, -5.902777868564039700, 5.308337926064510600E-005 ) ) ;
#205 = DIRECTION ( 'NONE',  ( 1.734723475976810100E-020, 3.407667765548950100E-037, 1.000000000000000000 ) ) ;
#206 = CARTESIAN_POINT ( 'NONE',  ( -10.06944472837760100, 6.165756627899430100E-016, -0.0003850779603274720000 ) ) ;
#207 = EDGE_CURVE ( 'NONE', #68, #61, #119, .T. ) ;
#208 = COORDINATED_UNIVERSAL_TIME_OFFSET ( 5, 0, .BEHIND. ) ;
#209 = CARTESIAN_POINT ( 'NONE',  ( 0.0000000000000000000, 1.736111111390970000, 0.0000000000000000000 ) ) ;
#210 = DIRECTION ( 'NONE',  ( 1.000000000000000000, 0.0000000000000000000, 0.0000000000000000000 ) ) ;
#211 = CARTESIAN_POINT ( 'NONE',  ( 0.0000000000000000000, 5.902777868564039700, 5.308337926064509900E-005 ) ) ;
#212 = DATE_TIME_ROLE ( 'creation_date' ) ;
#213 = CARTESIAN_POINT ( 'NONE',  ( 0.0000000000000000000, 1.736111111390970000, 0.0000000000000000000 ) ) ;
#214 = CARTESIAN_POINT ( 'NONE',  ( 0.0000000000000000000, 0.0000000000000000000, 0.0000000000000000000 ) ) ;
#215 = CC_DESIGN_APPROVAL ( #280, ( #266 ) ) ;
#216 = PERSON_AND_ORGANIZATION_ROLE ( 'classification_officer' ) ;
#217 =( GEOMETRIC_REPRESENTATION_CONTEXT ( 3 ) GLOBAL_UNCERTAINTY_ASSIGNED_CONTEXT ( ( #227 ) ) GLOBAL_UNIT_ASSIGNED_CONTEXT ( ( #50, #288, #26 ) ) REPRESENTATION_CONTEXT ( 'NONE', 'WORKASPACE' ) );
#218 = DATE_AND_TIME ( #144, #286 ) ;
#219 = PRODUCT ( 'Web Model 66759', 'Web Model 66759', '', ( #81 ) ) ;
#220 = SECURITY_CLASSIFICATION ( '', '', #6 ) ;
#221 = DIRECTION ( 'NONE',  ( -1.694065894508600700E-020, 1.694065894508600700E-020, 1.000000000000000000 ) ) ;
#222 = APPROVAL ( #77, 'UNSPECIFIED' ) ;
#223 = LOCAL_TIME ( 14, 40, 2.000000000000000000, #208 ) ;
#224 = SHAPE_DEFINITION_REPRESENTATION ( #184, #111 ) ;
#225 = CARTESIAN_POINT ( 'NONE',  ( 0.0000000000000000000, 0.0000000000000000000, 0.0000000000000000000 ) ) ;
#226 = CARTESIAN_POINT ( 'NONE',  ( 3.827021247335479800E-016, 1.632765987455498600E-015, -0.001732850113905759800 ) ) ;
#227 = UNCERTAINTY_MEASURE_WITH_UNIT (LENGTH_MEASURE( 1.000000000000000100E-005 ), #50, 'distance_accuracy_value', 'NONE');
#228 = CARTESIAN_POINT ( 'NONE',  ( -5.902777868564039700, 3.614409011407390200E-016, 5.308337926064509900E-005 ) ) ;
#229 = LOCAL_TIME ( 14, 40, 2.000000000000000000, #302 ) ;
#230 = DIRECTION ( 'NONE',  ( 0.0000000000000000000, 0.0000000000000000000, -1.000000000000000000 ) ) ;
#231 = CARTESIAN_POINT ( 'NONE',  ( 5.902777868564039700, -1.084322703422220000E-015, 5.308337926064509900E-005 ) ) ;
#232 = CARTESIAN_POINT ( 'NONE',  ( 0.0000000000000000000, 0.0000000000000000000, 0.0000000000000000000 ) ) ;
#233 = DIRECTION ( 'NONE',  ( 1.000000000000000000, 0.0000000000000000000, 0.0000000000000000000 ) ) ;
#234 = CARTESIAN_POINT ( 'NONE',  ( 0.0000000000000000000, 1.736111111390970000, 0.0000000000000000000 ) ) ;
#235 = EDGE_CURVE ( 'NONE', #105, #156, #242, .T. ) ;
#236 = CARTESIAN_POINT ( 'NONE',  ( 0.0000000000000000000, 12.50000000000000000, -0.001732850113905760000 ) ) ;
#237 = ORIENTED_EDGE ( 'NONE', *, *, #97, .F. ) ;
#238 = ADVANCED_FACE ( 'NONE', ( #179 ), #173, .T. ) ;
#239 = APPROVAL_PERSON_ORGANIZATION ( #102, #280, #9 ) ;
#240 = CC_DESIGN_PERSON_AND_ORGANIZATION_ASSIGNMENT ( #298, #31, ( #219 ) ) ;
#241 = CC_DESIGN_PERSON_AND_ORGANIZATION_ASSIGNMENT ( #200, #290, ( #266 ) ) ;
#242 = B_SPLINE_CURVE_WITH_KNOTS ( 'NONE', 3,
 ( #196, #268, #126, #82, #174 ),
 .UNSPECIFIED., .F., .F.,
 ( 4, 1, 4 ),
 ( 0.0000000000000000000, 0.4166666577313750100, 1.000000000000000000 ),
 .UNSPECIFIED. ) ;
#243 = CLOSED_SHELL ( 'NONE', ( #193, #80, #101, #54, #238 ) ) ;
#244 = DIRECTION ( 'NONE',  ( 1.000000000000000000, 0.0000000000000000000, 1.694065894508600700E-020 ) ) ;
#245 = CC_DESIGN_PERSON_AND_ORGANIZATION_ASSIGNMENT ( #141, #79, ( #46 ) ) ;
#246 = DESIGN_CONTEXT ( 'detailed design', #32, 'design' ) ;
#247 = ORIENTED_EDGE ( 'NONE', *, *, #154, .F. ) ;
#248 = CARTESIAN_POINT ( 'NONE',  ( 0.0000000000000000000, 0.0000000000000000000, 0.0000000000000000000 ) ) ;
#249 = ORIENTED_EDGE ( 'NONE', *, *, #125, .F. ) ;
#250 = CARTESIAN_POINT ( 'NONE',  ( 10.06944472837760300, -10.06944472837760300, -0.0003850779603274720000 ) ) ;
#251 = FACE_OUTER_BOUND ( 'NONE', #181, .T. ) ;
#252 = AXIS2_PLACEMENT_3D ( 'NONE', #162, #73, #93 ) ;
#253 = CARTESIAN_POINT ( 'NONE',  ( 0.0000000000000000000, 0.0000000000000000000, 0.0000000000000000000 ) ) ;
#254 = CARTESIAN_POINT ( 'NONE',  ( -12.50000000000000000, 3.307165338334441800E-015, -4.000000000000000000 ) ) ;
#255 = DIRECTION ( 'NONE',  ( 1.734723475976810100E-020, 3.407667765548950100E-037, 1.000000000000000000 ) ) ;
#256 = CARTESIAN_POINT ( 'NONE',  ( -12.50000000000000000, 3.307165338334441800E-015, -0.001732850113905760000 ) ) ;
#257 = CC_DESIGN_PERSON_AND_ORGANIZATION_ASSIGNMENT ( #112, #291, ( #266 ) ) ;
#258 = CARTESIAN_POINT ( 'NONE',  ( 0.0000000000000000000, 0.0000000000000000000, 0.0000000000000000000 ) ) ;
#259 = CARTESIAN_POINT ( 'NONE',  ( -1.530808498934189900E-015, -12.49999999999999800, -0.001732850113905759600 ) ) ;
#260 = DIRECTION ( 'NONE',  ( 0.0000000000000000000, 0.0000000000000000000, 1.000000000000000000 ) ) ;
#261 = CARTESIAN_POINT ( 'NONE',  ( 3.827021247335479800E-016, 1.632765987455498600E-015, -0.001732850113905759800 ) ) ;
#262 = CARTESIAN_POINT ( 'NONE',  ( 0.0000000000000000000, 0.0000000000000000000, 0.0000000000000000000 ) ) ;
#263 = CARTESIAN_POINT ( 'NONE',  ( -12.50000000000000000, -12.50000000000000000, -0.001732850113905760400 ) ) ;
#264 = CARTESIAN_POINT ( 'NONE',  ( 0.0000000000000000000, 0.0000000000000000000, 0.0000000000000000000 ) ) ;
#265 = ORIENTED_EDGE ( 'NONE', *, *, #271, .T. ) ;
#266 = PRODUCT_DEFINITION_FORMATION_WITH_SPECIFIED_SOURCE ( 'ANY', '', #219, .NOT_KNOWN. ) ;
#267 = APPROVAL_DATE_TIME ( #177, #280 ) ;
#268 = CARTESIAN_POINT ( 'NONE',  ( -2.126122915529110000E-016, -1.736111111390970000, 0.0000000000000000000 ) ) ;
#269 = DATE_AND_TIME ( #86, #295 ) ;
#270 = MANIFOLD_SOLID_BREP ( 'Imported1', #243 ) ;
#271 = EDGE_CURVE ( 'NONE', #61, #272, #107, .T. ) ;
#272 = VERTEX_POINT ( 'NONE', #256 ) ;
#273 = AXIS2_PLACEMENT_3D ( 'NONE', #297, #12, #244 ) ;
#274 = CARTESIAN_POINT ( 'NONE',  ( 0.0000000000000000000, 0.0000000000000000000, 0.0000000000000000000 ) ) ;
#275 = CALENDAR_DATE ( 2017, 31, 1 ) ;
#276 = CC_DESIGN_PERSON_AND_ORGANIZATION_ASSIGNMENT ( #57, #216, ( #220 ) ) ;
#277 = CARTESIAN_POINT ( 'NONE',  ( 1.736111111390970000, -3.189184373293670200E-016, 0.0000000000000000000 ) ) ;
#278 = CARTESIAN_POINT ( 'NONE',  ( 10.06944472837760100, -1.849726988369829900E-015, -0.0003850779603274720000 ) ) ;
#279 = CARTESIAN_POINT ( 'NONE',  ( -7.228818022814780300E-016, -5.902777868564039700, 5.308337926064509900E-005 ) ) ;
#280 = APPROVAL ( #147, 'UNSPECIFIED' ) ;
#281 = APPLICATION_CONTEXT ( 'configuration controlled 3d designs of mechanical parts and assemblies' ) ;
#282 = ORIENTED_EDGE ( 'NONE', *, *, #296, .T. ) ;
#283 = CARTESIAN_POINT ( 'NONE',  ( 12.50000000000000000, 0.0000000000000000000, -4.000000000000000000 ) ) ;
#284 = CARTESIAN_POINT ( 'NONE',  ( 5.902777868564039700, 5.902777868564030900, 5.308337926064510600E-005 ) ) ;
#285 = CARTESIAN_POINT ( 'NONE',  ( -25.70400000000000100, 0.0000000000000000000, -4.000000000000000000 ) ) ;
#286 = LOCAL_TIME ( 14, 40, 2.000000000000000000, #171 ) ;
#287 = CARTESIAN_POINT ( 'NONE',  ( 0.0000000000000000000, 0.0000000000000000000, 0.0000000000000000000 ) ) ;
#288 =( NAMED_UNIT ( * ) PLANE_ANGLE_UNIT ( ) SI_UNIT ( $, .RADIAN. ) );
#289 = AXIS2_PLACEMENT_3D ( 'NONE', #118, #22, #210 ) ;
#290 = PERSON_AND_ORGANIZATION_ROLE ( 'creator' ) ;
#291 = PERSON_AND_ORGANIZATION_ROLE ( 'design_supplier' ) ;
#292 = EDGE_LOOP ( 'NONE', ( #203, #175, #27, #76, #247 ) ) ;
#293 = AXIS2_PLACEMENT_3D ( 'NONE', #92, #255, #24 ) ;
#294 = DATE_AND_TIME ( #34, #223 ) ;
#295 = LOCAL_TIME ( 14, 40, 2.000000000000000000, #149 ) ;
#296 = EDGE_CURVE ( 'NONE', #272, #156, #58, .T. ) ;
#297 = CARTESIAN_POINT ( 'NONE',  ( 3.827021247335479800E-016, 1.632765987455498600E-015, -0.001732850113905759800 ) ) ;
#298 = PERSON_AND_ORGANIZATION ( #11, #16 ) ;
#299 = CARTESIAN_POINT ( 'NONE',  ( -2.126122915529110000E-016, -1.736111111390970000, 0.0000000000000000000 ) ) ;
#300 = CARTESIAN_POINT ( 'NONE',  ( 0.0000000000000000000, 10.06944472837760100, -0.0003850779603274720000 ) ) ;
#301 = ORIENTED_EDGE ( 'NONE', *, *, #64, .F. ) ;
#302 = COORDINATED_UNIVERSAL_TIME_OFFSET ( 5, 0, .BEHIND. ) ;
#303 = AXIS2_PLACEMENT_3D ( 'NONE', #226, #39, #103 ) ;
#304 = CARTESIAN_POINT ( 'NONE',  ( -7.228818022814780300E-016, -5.902777868564039700, 5.308337926064509900E-005 ) ) ;
#305 = CARTESIAN_POINT ( 'NONE',  ( -12.50000000000000000, 3.307165338334441800E-015, -4.000000000000000000 ) ) ;
ENDSEC;
END-ISO-10303-21;
