ISO-10303-21;
HEADER;
FILE_DESCRIPTION (( 'STEP AP203' ),
    '1' );
FILE_NAME ('20225-E0W.STEP',
    '2009-09-14T20:11:07',
    ( 'Admin' ),
    ( 'Thorlabs, Inc.' ),
    'SwSTEP 2.0',
    'SolidWorks 2007',
    '' );
FILE_SCHEMA (( 'CONFIG_CONTROL_DESIGN' ));
ENDSEC;

DATA;
#1 = ORIENTED_EDGE ( 'NONE', *, *, #41, .T. ) ;
#2 = ADVANCED_FACE ( 'NONE', ( #113 ), #99, .T. ) ;
#3 = ADVANCED_FACE ( 'NONE', ( #128 ), #91, .F. ) ;
#4 = EDGE_CURVE ( 'NONE', #28, #16, #146, .T. ) ;
#5 = EDGE_LOOP ( 'NONE', ( #18, #37, #39 ) ) ;
#6 = CLOSED_SHELL ( 'NONE', ( #46, #24, #3, #35, #38, #2 ) ) ;
#7 = ORIENTED_EDGE ( 'NONE', *, *, #4, .T. ) ;
#8 = ORIENTED_EDGE ( 'NONE', *, *, #20, .F. ) ;
#9 = EDGE_LOOP ( 'NONE', ( #8, #7, #11, #10 ) ) ;
#10 = ORIENTED_EDGE ( 'NONE', *, *, #34, .F. ) ;
#11 = ORIENTED_EDGE ( 'NONE', *, *, #17, .T. ) ;
#12 = VERTEX_POINT ( 'NONE', #112 ) ;
#13 = VERTEX_POINT ( 'NONE', #101 ) ;
#14 = ORIENTED_EDGE ( 'NONE', *, *, #40, .F. ) ;
#15 = VERTEX_POINT ( 'NONE', #69 ) ;
#16 = VERTEX_POINT ( 'NONE', #68 ) ;
#17 = EDGE_CURVE ( 'NONE', #16, #13, #144, .T. ) ;
#18 = ORIENTED_EDGE ( 'NONE', *, *, #22, .F. ) ;
#19 = ORIENTED_EDGE ( 'NONE', *, *, #17, .F. ) ;
#20 = EDGE_CURVE ( 'NONE', #28, #12, #82, .T. ) ;
#21 = EDGE_LOOP ( 'NONE', ( #23, #32, #14 ) ) ;
#22 = EDGE_CURVE ( 'NONE', #15, #12, #126, .T. ) ;
#23 = ORIENTED_EDGE ( 'NONE', *, *, #41, .F. ) ;
#24 = ADVANCED_FACE ( 'NONE', ( #127 ), #67, .T. ) ;
#25 = EDGE_CURVE ( 'NONE', #13, #12, #141, .T. ) ;
#26 = ORIENTED_EDGE ( 'NONE', *, *, #25, .F. ) ;
#27 = MANIFOLD_SOLID_BREP ( 'NONE', #6 ) ;
#28 = VERTEX_POINT ( 'NONE', #108 ) ;
#29 = EDGE_CURVE ( 'NONE', #15, #13, #135, .T. ) ;
#30 = ORIENTED_EDGE ( 'NONE', *, *, #29, .F. ) ;
#31 = EDGE_LOOP ( 'NONE', ( #47, #44, #26, #19 ) ) ;
#32 = ORIENTED_EDGE ( 'NONE', *, *, #43, .T. ) ;
#33 = ORIENTED_EDGE ( 'NONE', *, *, #22, .T. ) ;
#34 = EDGE_CURVE ( 'NONE', #12, #13, #154, .T. ) ;
#35 = ADVANCED_FACE ( 'NONE', ( #74 ), #73, .F. ) ;
#36 = EDGE_LOOP ( 'NONE', ( #30, #33, #42 ) ) ;
#37 = ORIENTED_EDGE ( 'NONE', *, *, #29, .T. ) ;
#38 = ADVANCED_FACE ( 'NONE', ( #123 ), #120, .T. ) ;
#39 = ORIENTED_EDGE ( 'NONE', *, *, #25, .T. ) ;
#40 = EDGE_CURVE ( 'NONE', #16, #28, #78, .T. ) ;
#41 = EDGE_CURVE ( 'NONE', #45, #16, #107, .T. ) ;
#42 = ORIENTED_EDGE ( 'NONE', *, *, #34, .T. ) ;
#43 = EDGE_CURVE ( 'NONE', #45, #28, #102, .T. ) ;
#44 = ORIENTED_EDGE ( 'NONE', *, *, #20, .T. ) ;
#45 = VERTEX_POINT ( 'NONE', #59 ) ;
#46 = ADVANCED_FACE ( 'NONE', ( #58 ), #56, .T. ) ;
#47 = ORIENTED_EDGE ( 'NONE', *, *, #40, .T. ) ;
#48 = ORIENTED_EDGE ( 'NONE', *, *, #4, .F. ) ;
#49 = ORIENTED_EDGE ( 'NONE', *, *, #43, .F. ) ;
#50 = EDGE_LOOP ( 'NONE', ( #49, #1, #48 ) ) ;
#51 =( LENGTH_UNIT ( ) NAMED_UNIT ( * ) SI_UNIT ( .MILLI., .METRE. ) );
#52 = DIRECTION ( 'NONE',  ( 0.0000000000000000000, 0.0000000000000000000, 1.000000000000000000 ) ) ;
#53 = DIRECTION ( 'NONE',  ( 0.0000000000000000000, -1.000000000000000000, -1.707404996040164000E-016 ) ) ;
#54 = DIRECTION ( 'NONE',  ( 0.0000000000000000000, -1.836909530733566100E-016, 1.000000000000000000 ) ) ;
#55 = AXIS2_PLACEMENT_3D ( 'NONE', #57, #54, #53 ) ;
#56 = CYLINDRICAL_SURFACE ( 'NONE', #55, 12.70000000000000300 ) ;
#57 = CARTESIAN_POINT ( 'NONE',  ( 0.0000000000000000000, 0.0000000000000000000, 2.000000000000000000 ) ) ;
#58 = FACE_OUTER_BOUND ( 'NONE', #31, .T. ) ;
#59 = CARTESIAN_POINT ( 'NONE',  ( 0.0000000000000000000, 3.866082259017246000E-015, -2.000000000000001800 ) ) ;
#60 = DIRECTION ( 'NONE',  ( 1.224606353822377300E-016, 1.000000000000000000, 0.0000000000000000000 ) ) ;
#61 = DIRECTION ( 'NONE',  ( 1.000000000000000000, -1.224606353822377300E-016, -2.249491082733206400E-032 ) ) ;
#62 = CARTESIAN_POINT ( 'NONE',  ( 0.0000000000000000000, 0.0000000000000000000, 29.57000000000000000 ) ) ;
#63 = AXIS2_PLACEMENT_3D ( 'NONE', #62, #61, #60 ) ;
#64 = DIRECTION ( 'NONE',  ( 0.0000000000000000000, -1.000000000000000000, -2.197939152330449200E-016 ) ) ;
#65 = DIRECTION ( 'NONE',  ( 1.000000000000000000, 0.0000000000000000000, 0.0000000000000000000 ) ) ;
#66 = AXIS2_PLACEMENT_3D ( 'NONE', #129, #65, #64 ) ;
#67 = SPHERICAL_SURFACE ( 'NONE', #66, 31.57000000000000000 ) ;
#68 = CARTESIAN_POINT ( 'NONE',  ( 0.0000000000000000000, -12.69999999999999600, 0.6671471996275030200 ) ) ;
#69 = CARTESIAN_POINT ( 'NONE',  ( 0.0000000000000000000, 3.796279696849373400E-015, 2.000000000000001800 ) ) ;
#70 = CARTESIAN_POINT ( 'NONE',  ( 0.0000000000000000000, 0.0000000000000000000, 17.50000000000001400 ) ) ;
#71 = AXIS2_PLACEMENT_3D ( 'NONE', #70, #125, #124 ) ;
#72 = CARTESIAN_POINT ( 'NONE',  ( 0.0000000000000000000, 0.0000000000000000000, 29.57000000000000000 ) ) ;
#73 = SPHERICAL_SURFACE ( 'NONE', #71, 15.50000000000001400 ) ;
#74 = FACE_OUTER_BOUND ( 'NONE', #36, .T. ) ;
#75 = DIRECTION ( 'NONE',  ( 0.0000000000000000000, -1.000000000000000000, -1.878145495644180800E-016 ) ) ;
#76 = DIRECTION ( 'NONE',  ( 0.0000000000000000000, -1.836909530733566100E-016, 1.000000000000000000 ) ) ;
#77 = AXIS2_PLACEMENT_3D ( 'NONE', #121, #76, #75 ) ;
#78 = CIRCLE ( 'NONE', #77, 12.70000000000000100 ) ;
#79 = DIRECTION ( 'NONE',  ( 0.0000000000000000000, -1.000000000000000000, -2.197939152330449200E-016 ) ) ;
#80 = DIRECTION ( 'NONE',  ( 1.000000000000000000, 0.0000000000000000000, 0.0000000000000000000 ) ) ;
#81 = CARTESIAN_POINT ( 'NONE',  ( 1.555250069354419500E-015, 12.70000000000000300, 2.000000000000002200 ) ) ;
#82 = LINE ( 'NONE', #81, #85 ) ;
#83 = AXIS2_PLACEMENT_3D ( 'NONE', #155, #138, #94 ) ;
#84 = DIRECTION ( 'NONE',  ( 0.0000000000000000000, -1.836909530733566100E-016, 1.000000000000000000 ) ) ;
#85 = VECTOR ( 'NONE', #84, 1000.000000000000000 ) ;
#86 = PERSON ( 'UNSPECIFIED', 'UNSPECIFIED', 'UNSPECIFIED', ('UNSPECIFIED'), ('UNSPECIFIED'), ('UNSPECIFIED') ) ;
#87 = PRODUCT ( '20225-E0W', '20225-E0W', '', ( #88 ) ) ;
#88 = MECHANICAL_CONTEXT ( 'NONE', #90, 'mechanical' ) ;
#89 = APPLICATION_PROTOCOL_DEFINITION ( 'international standard', 'config_control_design', 1994, #90 ) ;
#90 = APPLICATION_CONTEXT ( 'configuration controlled 3d designs of mechanical parts and assemblies' ) ;
#91 = SPHERICAL_SURFACE ( 'NONE', #83, 15.50000000000001400 ) ;
#92 = DIRECTION ( 'NONE',  ( 0.0000000000000000000, -1.000000000000000000, -1.878145495644180800E-016 ) ) ;
#93 = DIRECTION ( 'NONE',  ( 0.0000000000000000000, -1.836909530733566100E-016, 1.000000000000000000 ) ) ;
#94 = DIRECTION ( 'NONE',  ( 0.0000000000000000000, 1.000000000000000000, 2.238352872228136200E-016 ) ) ;
#95 = DIRECTION ( 'NONE',  ( 0.0000000000000000000, 0.0000000000000000000, -1.000000000000000000 ) ) ;
#96 = DIRECTION ( 'NONE',  ( 1.000000000000000000, 0.0000000000000000000, 0.0000000000000000000 ) ) ;
#97 = CARTESIAN_POINT ( 'NONE',  ( 0.0000000000000000000, 0.0000000000000000000, 17.50000000000001400 ) ) ;
#98 = AXIS2_PLACEMENT_3D ( 'NONE', #97, #96, #95 ) ;
#99 = CYLINDRICAL_SURFACE ( 'NONE', #137, 12.70000000000000300 ) ;
#100 = DIRECTION ( 'NONE',  ( 0.0000000000000000000, -1.000000000000000000, -1.707404996040164000E-016 ) ) ;
#101 = CARTESIAN_POINT ( 'NONE',  ( -1.555250069354419700E-015, -12.70000000000000300, 8.614056043390771600 ) ) ;
#102 = CIRCLE ( 'NONE', #63, 31.57000000000000000 ) ;
#103 = DIRECTION ( 'NONE',  ( 0.0000000000000000000, 0.0000000000000000000, 1.000000000000000000 ) ) ;
#104 = DIRECTION ( 'NONE',  ( -1.000000000000000000, 0.0000000000000000000, 0.0000000000000000000 ) ) ;
#105 = CARTESIAN_POINT ( 'NONE',  ( 0.0000000000000000000, 0.0000000000000000000, 29.57000000000000000 ) ) ;
#106 = AXIS2_PLACEMENT_3D ( 'NONE', #105, #104, #103 ) ;
#107 = CIRCLE ( 'NONE', #106, 31.57000000000000000 ) ;
#108 = CARTESIAN_POINT ( 'NONE',  ( 1.555250069354418700E-015, 12.69999999999999900, 0.6671471996275089000 ) ) ;
#109 = DIRECTION ( 'NONE',  ( 0.0000000000000000000, -1.000000000000000000, -1.365923996832131400E-016 ) ) ;
#110 = DIRECTION ( 'NONE',  ( 0.0000000000000000000, -1.836909530733566100E-016, 1.000000000000000000 ) ) ;
#111 = CARTESIAN_POINT ( 'NONE',  ( 0.0000000000000000000, -1.214942258291044800E-015, 8.614056043390771600 ) ) ;
#112 = CARTESIAN_POINT ( 'NONE',  ( 0.0000000000000000000, 12.70000000000000300, 8.614056043390775100 ) ) ;
#113 = FACE_OUTER_BOUND ( 'NONE', #9, .T. ) ;
#114 = DIRECTION ( 'NONE',  ( 1.000000000000000000, 0.0000000000000000000, 0.0000000000000000000 ) ) ;
#115 = CARTESIAN_POINT ( 'NONE',  ( 0.0000000000000000000, 0.0000000000000000000, 0.0000000000000000000 ) ) ;
#116 = AXIS2_PLACEMENT_3D ( 'NONE', #115, #52, #114 ) ;
#117 = ADVANCED_BREP_SHAPE_REPRESENTATION ( '20225-E0W', ( #27, #116 ), #118 ) ;
#118 =( GEOMETRIC_REPRESENTATION_CONTEXT ( 3 ) GLOBAL_UNCERTAINTY_ASSIGNED_CONTEXT ( ( #148 ) ) GLOBAL_UNIT_ASSIGNED_CONTEXT ( ( #51, #150, #149 ) ) REPRESENTATION_CONTEXT ( 'NONE', 'WORKASPACE' ) );
#119 = CARTESIAN_POINT ( 'NONE',  ( 0.0000000000000000000, 0.0000000000000000000, 2.000000000000000000 ) ) ;
#120 = SPHERICAL_SURFACE ( 'NONE', #122, 31.57000000000000000 ) ;
#121 = CARTESIAN_POINT ( 'NONE',  ( 0.0000000000000000000, 2.448330012069157000E-016, 0.6671471996275064600 ) ) ;
#122 = AXIS2_PLACEMENT_3D ( 'NONE', #72, #80, #79 ) ;
#123 = FACE_OUTER_BOUND ( 'NONE', #50, .T. ) ;
#124 = DIRECTION ( 'NONE',  ( 0.0000000000000000000, 1.000000000000000000, 2.238352872228136200E-016 ) ) ;
#125 = DIRECTION ( 'NONE',  ( -1.000000000000000000, 0.0000000000000000000, 0.0000000000000000000 ) ) ;
#126 = CIRCLE ( 'NONE', #98, 15.50000000000001400 ) ;
#127 = FACE_OUTER_BOUND ( 'NONE', #21, .T. ) ;
#128 = FACE_OUTER_BOUND ( 'NONE', #5, .T. ) ;
#129 = CARTESIAN_POINT ( 'NONE',  ( 0.0000000000000000000, 0.0000000000000000000, 29.57000000000000000 ) ) ;
#130 = CARTESIAN_POINT ( 'NONE',  ( 0.0000000000000000000, 2.448330012069157000E-016, 0.6671471996275064600 ) ) ;
#131 = DIRECTION ( 'NONE',  ( -1.224606353822377500E-016, -1.000000000000000000, 0.0000000000000000000 ) ) ;
#132 = DIRECTION ( 'NONE',  ( -1.000000000000000000, 1.224606353822377300E-016, 2.249491082733206400E-032 ) ) ;
#133 = CARTESIAN_POINT ( 'NONE',  ( 0.0000000000000000000, 0.0000000000000000000, 17.50000000000001400 ) ) ;
#134 = AXIS2_PLACEMENT_3D ( 'NONE', #133, #132, #131 ) ;
#135 = CIRCLE ( 'NONE', #134, 15.50000000000001400 ) ;
#136 = CARTESIAN_POINT ( 'NONE',  ( 0.0000000000000000000, -1.214942258291044800E-015, 8.614056043390771600 ) ) ;
#137 = AXIS2_PLACEMENT_3D ( 'NONE', #119, #139, #100 ) ;
#138 = DIRECTION ( 'NONE',  ( -1.000000000000000000, 0.0000000000000000000, 0.0000000000000000000 ) ) ;
#139 = DIRECTION ( 'NONE',  ( 0.0000000000000000000, -1.836909530733566100E-016, 1.000000000000000000 ) ) ;
#140 = AXIS2_PLACEMENT_3D ( 'NONE', #111, #110, #109 ) ;
#141 = CIRCLE ( 'NONE', #140, 12.70000000000000300 ) ;
#142 = VECTOR ( 'NONE', #147, 1000.000000000000000 ) ;
#143 = CARTESIAN_POINT ( 'NONE',  ( 0.0000000000000000000, -12.70000000000000300, 1.999999999999997800 ) ) ;
#144 = LINE ( 'NONE', #143, #142 ) ;
#145 = AXIS2_PLACEMENT_3D ( 'NONE', #130, #93, #92 ) ;
#146 = CIRCLE ( 'NONE', #145, 12.70000000000000100 ) ;
#147 = DIRECTION ( 'NONE',  ( 0.0000000000000000000, -1.836909530733566100E-016, 1.000000000000000000 ) ) ;
#148 = UNCERTAINTY_MEASURE_WITH_UNIT (LENGTH_MEASURE( 1.000000000000000100E-005 ), #51, 'distance_accuracy_value', 'NONE');
#149 =( NAMED_UNIT ( * ) SI_UNIT ( $, .STERADIAN. ) SOLID_ANGLE_UNIT ( ) );
#150 =( NAMED_UNIT ( * ) PLANE_ANGLE_UNIT ( ) SI_UNIT ( $, .RADIAN. ) );
#151 = DIRECTION ( 'NONE',  ( 0.0000000000000000000, -1.000000000000000000, -1.365923996832131400E-016 ) ) ;
#152 = DIRECTION ( 'NONE',  ( 0.0000000000000000000, -1.836909530733566100E-016, 1.000000000000000000 ) ) ;
#153 = AXIS2_PLACEMENT_3D ( 'NONE', #136, #152, #151 ) ;
#154 = CIRCLE ( 'NONE', #153, 12.70000000000000300 ) ;
#155 = CARTESIAN_POINT ( 'NONE',  ( 0.0000000000000000000, 0.0000000000000000000, 17.50000000000001400 ) ) ;
#156 = APPLICATION_CONTEXT ( 'configuration controlled 3d designs of mechanical parts and assemblies' ) ;
#157 = PERSON_AND_ORGANIZATION ( #86, #219 ) ;
#158 = SHAPE_DEFINITION_REPRESENTATION ( #159, #117 ) ;
#159 = PRODUCT_DEFINITION_SHAPE ( 'NONE', 'NONE',  #193 ) ;
#160 = PRODUCT_RELATED_PRODUCT_CATEGORY ( 'detail', '', ( #87 ) ) ;
#161 = CC_DESIGN_PERSON_AND_ORGANIZATION_ASSIGNMENT ( #163, #162, ( #169 ) ) ;
#162 = PERSON_AND_ORGANIZATION_ROLE ( 'creator' ) ;
#163 = PERSON_AND_ORGANIZATION ( #86, #219 ) ;
#164 = COORDINATED_UNIVERSAL_TIME_OFFSET ( 5, 0, .BEHIND. ) ;
#165 = PERSON_AND_ORGANIZATION_ROLE ( 'design_owner' ) ;
#166 = APPROVAL ( #167, 'UNSPECIFIED' ) ;
#167 = APPROVAL_STATUS ( 'not_yet_approved' ) ;
#168 = PERSON_AND_ORGANIZATION ( #86, #219 ) ;
#169 = PRODUCT_DEFINITION_FORMATION_WITH_SPECIFIED_SOURCE ( 'ANY', '', #87, .NOT_KNOWN. ) ;
#170 = CC_DESIGN_APPROVAL ( #166, ( #169 ) ) ;
#171 = APPROVAL_DATE_TIME ( #172, #166 ) ;
#172 = DATE_AND_TIME ( #173, #177 ) ;
#173 = CALENDAR_DATE ( 2009, 14, 9 ) ;
#174 = CC_DESIGN_PERSON_AND_ORGANIZATION_ASSIGNMENT ( #176, #175, ( #193 ) ) ;
#175 = PERSON_AND_ORGANIZATION_ROLE ( 'creator' ) ;
#176 = PERSON_AND_ORGANIZATION ( #86, #219 ) ;
#177 = LOCAL_TIME ( 16, 11, 7.000000000000000000, #178 ) ;
#178 = COORDINATED_UNIVERSAL_TIME_OFFSET ( 5, 0, .BEHIND. ) ;
#179 = APPROVAL_PERSON_ORGANIZATION ( #168, #166, #180 ) ;
#180 = APPROVAL_ROLE ( '' ) ;
#181 = CC_DESIGN_APPROVAL ( #195, ( #193 ) ) ;
#182 = APPROVAL_DATE_TIME ( #183, #195 ) ;
#183 = DATE_AND_TIME ( #184, #185 ) ;
#184 = CALENDAR_DATE ( 2009, 14, 9 ) ;
#185 = LOCAL_TIME ( 16, 11, 7.000000000000000000, #186 ) ;
#186 = COORDINATED_UNIVERSAL_TIME_OFFSET ( 5, 0, .BEHIND. ) ;
#187 = APPROVAL_PERSON_ORGANIZATION ( #225, #195, #194 ) ;
#188 = CC_DESIGN_SECURITY_CLASSIFICATION ( #190, ( #169 ) ) ;
#189 = PERSON_AND_ORGANIZATION ( #86, #219 ) ;
#190 = SECURITY_CLASSIFICATION ( '', '', #191 ) ;
#191 = SECURITY_CLASSIFICATION_LEVEL ( 'unclassified' ) ;
#192 = APPROVAL_STATUS ( 'not_yet_approved' ) ;
#193 = PRODUCT_DEFINITION ( 'UNKNOWN', '', #169, #226 ) ;
#194 = APPROVAL_ROLE ( '' ) ;
#195 = APPROVAL ( #192, 'UNSPECIFIED' ) ;
#196 = CC_DESIGN_PERSON_AND_ORGANIZATION_ASSIGNMENT ( #198, #197, ( #169 ) ) ;
#197 = PERSON_AND_ORGANIZATION_ROLE ( 'design_supplier' ) ;
#198 = PERSON_AND_ORGANIZATION ( #86, #219 ) ;
#199 = CC_DESIGN_DATE_AND_TIME_ASSIGNMENT ( #221, #220, ( #193 ) ) ;
#200 = COORDINATED_UNIVERSAL_TIME_OFFSET ( 5, 0, .BEHIND. ) ;
#201 = CC_DESIGN_PERSON_AND_ORGANIZATION_ASSIGNMENT ( #189, #202, ( #190 ) ) ;
#202 = PERSON_AND_ORGANIZATION_ROLE ( 'classification_officer' ) ;
#203 = PERSON_AND_ORGANIZATION ( #86, #219 ) ;
#204 = CC_DESIGN_DATE_AND_TIME_ASSIGNMENT ( #206, #205, ( #190 ) ) ;
#205 = DATE_TIME_ROLE ( 'classification_date' ) ;
#206 = DATE_AND_TIME ( #207, #208 ) ;
#207 = CALENDAR_DATE ( 2009, 14, 9 ) ;
#208 = LOCAL_TIME ( 16, 11, 7.000000000000000000, #200 ) ;
#209 = CC_DESIGN_APPROVAL ( #217, ( #190 ) ) ;
#210 = APPROVAL_DATE_TIME ( #211, #217 ) ;
#211 = DATE_AND_TIME ( #212, #213 ) ;
#212 = CALENDAR_DATE ( 2009, 14, 9 ) ;
#213 = LOCAL_TIME ( 16, 11, 7.000000000000000000, #214 ) ;
#214 = COORDINATED_UNIVERSAL_TIME_OFFSET ( 5, 0, .BEHIND. ) ;
#215 = APPROVAL_PERSON_ORGANIZATION ( #203, #217, #216 ) ;
#216 = APPROVAL_ROLE ( '' ) ;
#217 = APPROVAL ( #218, 'UNSPECIFIED' ) ;
#218 = APPROVAL_STATUS ( 'not_yet_approved' ) ;
#219 = ORGANIZATION ( 'UNSPECIFIED', 'UNSPECIFIED', '' ) ;
#220 = DATE_TIME_ROLE ( 'creation_date' ) ;
#221 = DATE_AND_TIME ( #222, #223 ) ;
#222 = CALENDAR_DATE ( 2009, 14, 9 ) ;
#223 = LOCAL_TIME ( 16, 11, 7.000000000000000000, #164 ) ;
#224 = CC_DESIGN_PERSON_AND_ORGANIZATION_ASSIGNMENT ( #157, #165, ( #87 ) ) ;
#225 = PERSON_AND_ORGANIZATION ( #86, #219 ) ;
#226 = DESIGN_CONTEXT ( 'detailed design', #156, 'design' ) ;
#227 = APPLICATION_PROTOCOL_DEFINITION ( 'international standard', 'config_control_design', 1994, #156 ) ;
ENDSEC;
END-ISO-10303-21;
