ISO-10303-21;
HEADER;
FILE_DESCRIPTION (( 'STEP AP203' ),
    '1' );
FILE_NAME ('Web Model 14958_14984.step',
    '2020-07-27T18:31:54',
    ( '' ),
    ( '' ),
    'SwSTEP 2.0',
    'SolidWorks 2018',
    '' );
FILE_SCHEMA (( 'CONFIG_CONTROL_DESIGN' ));
ENDSEC;

DATA;
#1 = MANIFOLD_SOLID_BREP ( 'Boss-Extrude1', #22 ) ;
#2 = FACE_OUTER_BOUND ( 'NONE', #114, .T. ) ;
#3 = CALENDAR_DATE ( 2020, 27, 7 ) ;
#4 = DIRECTION ( 'NONE',  ( 0.0000000000000000000, 0.0000000000000000000, -1.000000000000000000 ) ) ;
#5 = CARTESIAN_POINT ( 'NONE',  ( 1.000000000000000000, 0.0000000000000000000, 0.0000000000000000000 ) ) ;
#6 = VECTOR ( 'NONE', #137, 1000.000000000000000 ) ;
#7 = SHAPE_DEFINITION_REPRESENTATION ( #103, #121 ) ;
#8 = DIRECTION ( 'NONE',  ( 1.000000000000000000, 0.0000000000000000000, 0.0000000000000000000 ) ) ;
#9 = PLANE ( 'NONE',  #130 ) ;
#10 =( NAMED_UNIT ( * ) SI_UNIT ( $, .STERADIAN. ) SOLID_ANGLE_UNIT ( ) );
#11 = EDGE_CURVE ( 'NONE', #147, #104, #73, .T. ) ;
#12 = APPROVAL_ROLE ( '' ) ;
#13 = VECTOR ( 'NONE', #126, 1000.000000000000000 ) ;
#14 = CALENDAR_DATE ( 2020, 27, 7 ) ;
#15 = ADVANCED_FACE ( 'NONE', ( #23 ), #84, .T. ) ;
#16 = DIRECTION ( 'NONE',  ( 1.000000000000000000, 0.0000000000000000000, 0.0000000000000000000 ) ) ;
#17 = APPROVAL ( #172, 'UNSPECIFIED' ) ;
#18 = DIRECTION ( 'NONE',  ( 0.0000000000000000000, 0.0000000000000000000, -1.000000000000000000 ) ) ;
#19 = COORDINATED_UNIVERSAL_TIME_OFFSET ( 5, 0, .BEHIND. ) ;
#20 = CARTESIAN_POINT ( 'NONE',  ( -1.000000000000000000, 0.0000000000000000000, 0.0000000000000000000 ) ) ;
#21 = PRODUCT_DEFINITION_FORMATION_WITH_SPECIFIED_SOURCE ( 'ANY', '', #65, .NOT_KNOWN. ) ;
#22 = CLOSED_SHELL ( 'NONE', ( #15, #162, #173, #78 ) ) ;
#23 = FACE_OUTER_BOUND ( 'NONE', #56, .T. ) ;
#24 = MECHANICAL_CONTEXT ( 'NONE', #49, 'mechanical' ) ;
#25 = SECURITY_CLASSIFICATION_LEVEL ( 'unclassified' ) ;
#26 = VERTEX_POINT ( 'NONE', #57 ) ;
#27 = VERTEX_POINT ( 'NONE', #136 ) ;
#28 = ORIENTED_EDGE ( 'NONE', *, *, #58, .T. ) ;
#29 = COORDINATED_UNIVERSAL_TIME_OFFSET ( 5, 0, .BEHIND. ) ;
#30 = CARTESIAN_POINT ( 'NONE',  ( -1.000000000000000000, 7.654042494670957606E-16, -6.250000000000000000 ) ) ;
#31 = PRODUCT_DEFINITION ( 'UNKNOWN', '', #21, #175 ) ;
#32 =( NAMED_UNIT ( * ) PLANE_ANGLE_UNIT ( ) SI_UNIT ( $, .RADIAN. ) );
#33 = ORIENTED_EDGE ( 'NONE', *, *, #119, .F. ) ;
#34 = COORDINATED_UNIVERSAL_TIME_OFFSET ( 5, 0, .BEHIND. ) ;
#35 = EDGE_CURVE ( 'NONE', #26, #27, #47, .T. ) ;
#36 =( GEOMETRIC_REPRESENTATION_CONTEXT ( 3 ) GLOBAL_UNCERTAINTY_ASSIGNED_CONTEXT ( ( #159 ) ) GLOBAL_UNIT_ASSIGNED_CONTEXT ( ( #90, #32, #10 ) ) REPRESENTATION_CONTEXT ( 'NONE', 'WORKASPACE' ) );
#37 = LOCAL_TIME ( 14, 31, 54.00000000000000000, #43 ) ;
#38 = CARTESIAN_POINT ( 'NONE',  ( 1.000000000000000000, 0.0000000000000000000, 0.0000000000000000000 ) ) ;
#39 = CARTESIAN_POINT ( 'NONE',  ( 0.0000000000000000000, 0.0000000000000000000, 0.0000000000000000000 ) ) ;
#40 = APPROVAL_STATUS ( 'not_yet_approved' ) ;
#41 = PERSON_AND_ORGANIZATION_ROLE ( 'classification_officer' ) ;
#42 = ORIENTED_EDGE ( 'NONE', *, *, #148, .F. ) ;
#43 = COORDINATED_UNIVERSAL_TIME_OFFSET ( 5, 0, .BEHIND. ) ;
#44 = APPROVAL ( #40, 'UNSPECIFIED' ) ;
#45 = APPROVAL_DATE_TIME ( #77, #17 ) ;
#46 = DIRECTION ( 'NONE',  ( 0.0000000000000000000, 0.0000000000000000000, 1.000000000000000000 ) ) ;
#47 = LINE ( 'NONE', #95, #6 ) ;
#48 = DATE_AND_TIME ( #3, #151 ) ;
#49 = APPLICATION_CONTEXT ( 'configuration controlled 3d designs of mechanical parts and assemblies' ) ;
#50 = APPROVAL_STATUS ( 'not_yet_approved' ) ;
#51 = PERSON_AND_ORGANIZATION_ROLE ( 'creator' ) ;
#52 = ORIENTED_EDGE ( 'NONE', *, *, #11, .T. ) ;
#53 = CIRCLE ( 'NONE', #164, 6.250000000000000000 ) ;
#54 = APPROVAL_PERSON_ORGANIZATION ( #93, #17, #87 ) ;
#55 = ORIENTED_EDGE ( 'NONE', *, *, #35, .F. ) ;
#56 = EDGE_LOOP ( 'NONE', ( #133, #52, #138, #55 ) ) ;
#57 = CARTESIAN_POINT ( 'NONE',  ( 1.000000000000000000, 0.0000000000000000000, 6.250000000000000000 ) ) ;
#58 = EDGE_CURVE ( 'NONE', #27, #104, #145, .T. ) ;
#59 = CARTESIAN_POINT ( 'NONE',  ( 1.000000000000000000, 7.654042494670957606E-16, -6.250000000000000000 ) ) ;
#60 = CC_DESIGN_PERSON_AND_ORGANIZATION_ASSIGNMENT ( #66, #158, ( #21 ) ) ;
#61 = PERSON_AND_ORGANIZATION ( #144, #64 ) ;
#62 = DATE_AND_TIME ( #132, #170 ) ;
#63 = APPROVAL_ROLE ( '' ) ;
#64 = ORGANIZATION ( 'UNSPECIFIED', 'UNSPECIFIED', '' ) ;
#65 = PRODUCT ( 'Web Model 14958_14984', 'Web Model 14958_14984', '', ( #24 ) ) ;
#66 = PERSON_AND_ORGANIZATION ( #144, #64 ) ;
#67 = DIRECTION ( 'NONE',  ( 1.000000000000000000, 0.0000000000000000000, 0.0000000000000000000 ) ) ;
#68 = CARTESIAN_POINT ( 'NONE',  ( 1.000000000000000000, 0.0000000000000000000, 0.0000000000000000000 ) ) ;
#69 = PERSON_AND_ORGANIZATION ( #144, #64 ) ;
#70 = DIRECTION ( 'NONE',  ( -1.000000000000000000, -0.0000000000000000000, -0.0000000000000000000 ) ) ;
#71 = DIRECTION ( 'NONE',  ( 1.000000000000000000, 0.0000000000000000000, 0.0000000000000000000 ) ) ;
#72 = AXIS2_PLACEMENT_3D ( 'NONE', #5, #70, #46 ) ;
#73 = LINE ( 'NONE', #59, #13 ) ;
#74 = COORDINATED_UNIVERSAL_TIME_OFFSET ( 5, 0, .BEHIND. ) ;
#75 = CC_DESIGN_APPROVAL ( #44, ( #31 ) ) ;
#76 = DATE_TIME_ROLE ( 'classification_date' ) ;
#77 = DATE_AND_TIME ( #14, #82 ) ;
#78 = ADVANCED_FACE ( 'NONE', ( #2 ), #167, .F. ) ;
#79 = CARTESIAN_POINT ( 'NONE',  ( 1.000000000000000000, 7.654042494670957606E-16, -6.250000000000000000 ) ) ;
#80 = DIRECTION ( 'NONE',  ( 1.000000000000000000, 0.0000000000000000000, 0.0000000000000000000 ) ) ;
#81 = CARTESIAN_POINT ( 'NONE',  ( 1.000000000000000000, 0.0000000000000000000, 0.0000000000000000000 ) ) ;
#82 = LOCAL_TIME ( 14, 31, 54.00000000000000000, #19 ) ;
#83 = AXIS2_PLACEMENT_3D ( 'NONE', #68, #80, #157 ) ;
#84 = CYLINDRICAL_SURFACE ( 'NONE', #72, 6.250000000000000000 ) ;
#85 = APPROVAL_DATE_TIME ( #48, #44 ) ;
#86 = AXIS2_PLACEMENT_3D ( 'NONE', #120, #149, #18 ) ;
#87 = APPROVAL_ROLE ( '' ) ;
#88 = AXIS2_PLACEMENT_3D ( 'NONE', #20, #108, #4 ) ;
#89 = CIRCLE ( 'NONE', #86, 6.250000000000000000 ) ;
#90 =( LENGTH_UNIT ( ) NAMED_UNIT ( * ) SI_UNIT ( .MILLI., .METRE. ) );
#91 = ORIENTED_EDGE ( 'NONE', *, *, #58, .F. ) ;
#92 = AXIS2_PLACEMENT_3D ( 'NONE', #39, #129, #8 ) ;
#93 = PERSON_AND_ORGANIZATION ( #144, #64 ) ;
#94 = CC_DESIGN_PERSON_AND_ORGANIZATION_ASSIGNMENT ( #118, #41, ( #169 ) ) ;
#95 = CARTESIAN_POINT ( 'NONE',  ( 1.000000000000000000, 0.0000000000000000000, 6.250000000000000000 ) ) ;
#96 = CC_DESIGN_PERSON_AND_ORGANIZATION_ASSIGNMENT ( #61, #115, ( #65 ) ) ;
#97 = CALENDAR_DATE ( 2020, 27, 7 ) ;
#98 = AXIS2_PLACEMENT_3D ( 'NONE', #153, #71, #168 ) ;
#99 = PERSON_AND_ORGANIZATION_ROLE ( 'creator' ) ;
#100 = EDGE_LOOP ( 'NONE', ( #122, #42, #163, #28 ) ) ;
#101 = CC_DESIGN_PERSON_AND_ORGANIZATION_ASSIGNMENT ( #110, #51, ( #31 ) ) ;
#102 = PERSON_AND_ORGANIZATION ( #144, #64 ) ;
#103 = PRODUCT_DEFINITION_SHAPE ( 'NONE', 'NONE',  #31 ) ;
#104 = VERTEX_POINT ( 'NONE', #30 ) ;
#105 = DIRECTION ( 'NONE',  ( 0.0000000000000000000, 0.0000000000000000000, -1.000000000000000000 ) ) ;
#106 = CC_DESIGN_DATE_AND_TIME_ASSIGNMENT ( #62, #76, ( #169 ) ) ;
#107 = DATE_AND_TIME ( #174, #166 ) ;
#108 = DIRECTION ( 'NONE',  ( 1.000000000000000000, 0.0000000000000000000, 0.0000000000000000000 ) ) ;
#109 = ORIENTED_EDGE ( 'NONE', *, *, #148, .T. ) ;
#110 = PERSON_AND_ORGANIZATION ( #144, #64 ) ;
#111 = CC_DESIGN_DATE_AND_TIME_ASSIGNMENT ( #107, #142, ( #31 ) ) ;
#112 = APPLICATION_PROTOCOL_DEFINITION ( 'international standard', 'config_control_design', 1994, #49 ) ;
#113 = CC_DESIGN_APPROVAL ( #17, ( #169 ) ) ;
#114 = EDGE_LOOP ( 'NONE', ( #91, #33 ) ) ;
#115 = PERSON_AND_ORGANIZATION_ROLE ( 'design_owner' ) ;
#116 = EDGE_CURVE ( 'NONE', #147, #26, #89, .T. ) ;
#117 = FACE_OUTER_BOUND ( 'NONE', #128, .T. ) ;
#118 = PERSON_AND_ORGANIZATION ( #144, #64 ) ;
#119 = EDGE_CURVE ( 'NONE', #104, #27, #53, .T. ) ;
#120 = CARTESIAN_POINT ( 'NONE',  ( 1.000000000000000000, 0.0000000000000000000, 0.0000000000000000000 ) ) ;
#121 = ADVANCED_BREP_SHAPE_REPRESENTATION ( 'Web Model 14958_14984', ( #1, #92 ), #36 ) ;
#122 = ORIENTED_EDGE ( 'NONE', *, *, #11, .F. ) ;
#123 = FACE_OUTER_BOUND ( 'NONE', #100, .T. ) ;
#124 = APPROVAL_PERSON_ORGANIZATION ( #69, #44, #12 ) ;
#125 = APPROVAL ( #50, 'UNSPECIFIED' ) ;
#126 = DIRECTION ( 'NONE',  ( -1.000000000000000000, -0.0000000000000000000, -0.0000000000000000000 ) ) ;
#127 = CC_DESIGN_APPROVAL ( #125, ( #21 ) ) ;
#128 = EDGE_LOOP ( 'NONE', ( #109, #155 ) ) ;
#129 = DIRECTION ( 'NONE',  ( 0.0000000000000000000, 0.0000000000000000000, 1.000000000000000000 ) ) ;
#130 = AXIS2_PLACEMENT_3D ( 'NONE', #38, #16, #146 ) ;
#131 = APPLICATION_CONTEXT ( 'configuration controlled 3d designs of mechanical parts and assemblies' ) ;
#132 = CALENDAR_DATE ( 2020, 27, 7 ) ;
#133 = ORIENTED_EDGE ( 'NONE', *, *, #116, .F. ) ;
#134 = DIRECTION ( 'NONE',  ( -1.000000000000000000, -0.0000000000000000000, -0.0000000000000000000 ) ) ;
#135 = APPROVAL_PERSON_ORGANIZATION ( #161, #125, #63 ) ;
#136 = CARTESIAN_POINT ( 'NONE',  ( -1.000000000000000000, 0.0000000000000000000, 6.250000000000000000 ) ) ;
#137 = DIRECTION ( 'NONE',  ( -1.000000000000000000, -0.0000000000000000000, -0.0000000000000000000 ) ) ;
#138 = ORIENTED_EDGE ( 'NONE', *, *, #119, .T. ) ;
#139 = CIRCLE ( 'NONE', #83, 6.250000000000000000 ) ;
#140 = DATE_AND_TIME ( #97, #37 ) ;
#141 = APPLICATION_PROTOCOL_DEFINITION ( 'international standard', 'config_control_design', 1994, #131 ) ;
#142 = DATE_TIME_ROLE ( 'creation_date' ) ;
#143 = PRODUCT_RELATED_PRODUCT_CATEGORY ( 'detail', '', ( #65 ) ) ;
#144 = PERSON ( 'UNSPECIFIED', 'UNSPECIFIED', 'UNSPECIFIED', ('UNSPECIFIED'), ('UNSPECIFIED'), ('UNSPECIFIED') ) ;
#145 = CIRCLE ( 'NONE', #98, 6.250000000000000000 ) ;
#146 = DIRECTION ( 'NONE',  ( 0.0000000000000000000, 0.0000000000000000000, -1.000000000000000000 ) ) ;
#147 = VERTEX_POINT ( 'NONE', #79 ) ;
#148 = EDGE_CURVE ( 'NONE', #26, #147, #139, .T. ) ;
#149 = DIRECTION ( 'NONE',  ( 1.000000000000000000, 0.0000000000000000000, 0.0000000000000000000 ) ) ;
#150 = DIRECTION ( 'NONE',  ( 0.0000000000000000000, 0.0000000000000000000, 1.000000000000000000 ) ) ;
#151 = LOCAL_TIME ( 14, 31, 54.00000000000000000, #74 ) ;
#152 = AXIS2_PLACEMENT_3D ( 'NONE', #81, #134, #150 ) ;
#153 = CARTESIAN_POINT ( 'NONE',  ( -1.000000000000000000, 0.0000000000000000000, 0.0000000000000000000 ) ) ;
#154 = APPROVAL_DATE_TIME ( #140, #125 ) ;
#155 = ORIENTED_EDGE ( 'NONE', *, *, #116, .T. ) ;
#156 = CC_DESIGN_SECURITY_CLASSIFICATION ( #169, ( #21 ) ) ;
#157 = DIRECTION ( 'NONE',  ( 0.0000000000000000000, 0.0000000000000000000, -1.000000000000000000 ) ) ;
#158 = PERSON_AND_ORGANIZATION_ROLE ( 'design_supplier' ) ;
#159 = UNCERTAINTY_MEASURE_WITH_UNIT (LENGTH_MEASURE( 1.000000000000000082E-05 ), #90, 'distance_accuracy_value', 'NONE');
#160 = CYLINDRICAL_SURFACE ( 'NONE', #152, 6.250000000000000000 ) ;
#161 = PERSON_AND_ORGANIZATION ( #144, #64 ) ;
#162 = ADVANCED_FACE ( 'NONE', ( #123 ), #160, .T. ) ;
#163 = ORIENTED_EDGE ( 'NONE', *, *, #35, .T. ) ;
#164 = AXIS2_PLACEMENT_3D ( 'NONE', #165, #67, #105 ) ;
#165 = CARTESIAN_POINT ( 'NONE',  ( -1.000000000000000000, 0.0000000000000000000, 0.0000000000000000000 ) ) ;
#166 = LOCAL_TIME ( 14, 31, 54.00000000000000000, #29 ) ;
#167 = PLANE ( 'NONE',  #88 ) ;
#168 = DIRECTION ( 'NONE',  ( 0.0000000000000000000, 0.0000000000000000000, -1.000000000000000000 ) ) ;
#169 = SECURITY_CLASSIFICATION ( '', '', #25 ) ;
#170 = LOCAL_TIME ( 14, 31, 54.00000000000000000, #34 ) ;
#171 = CC_DESIGN_PERSON_AND_ORGANIZATION_ASSIGNMENT ( #102, #99, ( #21 ) ) ;
#172 = APPROVAL_STATUS ( 'not_yet_approved' ) ;
#173 = ADVANCED_FACE ( 'NONE', ( #117 ), #9, .T. ) ;
#174 = CALENDAR_DATE ( 2020, 27, 7 ) ;
#175 = DESIGN_CONTEXT ( 'detailed design', #131, 'design' ) ;
ENDSEC;
END-ISO-10303-21;
