ISO-10303-21;
HEADER;
FILE_DESCRIPTION (( 'STEP AP214' ),
    '1' );
FILE_NAME ('3335-E0W.STEP',
    '2010-08-27T13:06:48',
    ( 'Admin' ),
    ( 'Thorlabs, Inc.' ),
    'SwSTEP 2.0',
    'SolidWorks 2009',
    '' );
FILE_SCHEMA (( 'AUTOMOTIVE_DESIGN' ));
ENDSEC;

DATA;
#1 = VERTEX_POINT ( 'NONE', #49 ) ;
#2 = MANIFOLD_SOLID_BREP ( 'NONE', #13 ) ;
#3 = EDGE_LOOP ( 'NONE', ( #36, #31, #32, #15 ) ) ;
#4 = ADVANCED_FACE ( 'NONE', ( #65 ), #95, .T. ) ;
#5 = ORIENTED_EDGE ( 'NONE', *, *, #51, .F. ) ;
#6 = EDGE_LOOP ( 'NONE', ( #14, #16, #20 ) ) ;
#7 = ADVANCED_FACE ( 'NONE', ( #93 ), #116, .T. ) ;
#8 = EDGE_CURVE ( 'NONE', #18, #30, #115, .T. ) ;
#9 = EDGE_LOOP ( 'NONE', ( #24, #25, #26, #12 ) ) ;
#10 = ORIENTED_EDGE ( 'NONE', *, *, #33, .T. ) ;
#11 = ORIENTED_EDGE ( 'NONE', *, *, #8, .T. ) ;
#12 = ORIENTED_EDGE ( 'NONE', *, *, #8, .F. ) ;
#13 = CLOSED_SHELL ( 'NONE', ( #4, #27, #22, #7, #28 ) ) ;
#14 = ORIENTED_EDGE ( 'NONE', *, *, #35, .F. ) ;
#15 = ORIENTED_EDGE ( 'NONE', *, *, #34, .F. ) ;
#16 = ORIENTED_EDGE ( 'NONE', *, *, #40, .T. ) ;
#17 = EDGE_CURVE ( 'NONE', #52, #18, #106, .T. ) ;
#18 = VERTEX_POINT ( 'NONE', #201 ) ;
#19 = ORIENTED_EDGE ( 'NONE', *, *, #40, .F. ) ;
#20 = ORIENTED_EDGE ( 'NONE', *, *, #29, .F. ) ;
#21 = EDGE_LOOP ( 'NONE', ( #19, #39, #5 ) ) ;
#22 = ADVANCED_FACE ( 'NONE', ( #223 ), #130, .T. ) ;
#23 = EDGE_LOOP ( 'NONE', ( #10, #11 ) ) ;
#24 = ORIENTED_EDGE ( 'NONE', *, *, #17, .F. ) ;
#25 = ORIENTED_EDGE ( 'NONE', *, *, #29, .T. ) ;
#26 = ORIENTED_EDGE ( 'NONE', *, *, #34, .T. ) ;
#27 = ADVANCED_FACE ( 'NONE', ( #180 ), #240, .T. ) ;
#28 = ADVANCED_FACE ( 'NONE', ( #238 ), #120, .T. ) ;
#29 = EDGE_CURVE ( 'NONE', #52, #1, #174, .T. ) ;
#30 = VERTEX_POINT ( 'NONE', #169 ) ;
#31 = ORIENTED_EDGE ( 'NONE', *, *, #17, .T. ) ;
#32 = ORIENTED_EDGE ( 'NONE', *, *, #33, .F. ) ;
#33 = EDGE_CURVE ( 'NONE', #30, #18, #168, .T. ) ;
#34 = EDGE_CURVE ( 'NONE', #1, #30, #161, .T. ) ;
#35 = EDGE_CURVE ( 'NONE', #41, #52, #157, .T. ) ;
#36 = ORIENTED_EDGE ( 'NONE', *, *, #51, .T. ) ;
#37 =( NAMED_UNIT ( * ) PLANE_ANGLE_UNIT ( ) SI_UNIT ( $, .RADIAN. ) );
#38 = COLOUR_RGB ( '',0.7960784313725489700, 0.8235294117647058400, 0.9372549019607843100 ) ;
#39 = ORIENTED_EDGE ( 'NONE', *, *, #35, .T. ) ;
#40 = EDGE_CURVE ( 'NONE', #41, #1, #152, .T. ) ;
#41 = VERTEX_POINT ( 'NONE', #147 ) ;
#42 = FILL_AREA_STYLE ('',( #48 ) ) ;
#43 = PRESENTATION_LAYER_ASSIGNMENT (  '', '', ( #44 ) ) ;
#44 = STYLED_ITEM ( 'NONE', ( #45 ), #2 ) ;
#45 = PRESENTATION_STYLE_ASSIGNMENT (( #46 ) ) ;
#46 = SURFACE_STYLE_USAGE ( .BOTH. , #47 ) ;
#47 = SURFACE_SIDE_STYLE ('',( #50 ) ) ;
#48 = FILL_AREA_STYLE_COLOUR ( '', #38 ) ;
#49 = CARTESIAN_POINT ( 'NONE',  ( 0.0000000000000000000, 0.5000000000000161000, 0.03433384798051227600 ) ) ;
#50 = SURFACE_STYLE_FILL_AREA ( #42 ) ;
#51 = EDGE_CURVE ( 'NONE', #1, #52, #146, .T. ) ;
#52 = VERTEX_POINT ( 'NONE', #140 ) ;
#53 = UNCERTAINTY_MEASURE_WITH_UNIT (LENGTH_MEASURE( 1.000000000000000100E-005 ), #56, 'distance_accuracy_value', 'NONE');
#54 =( NAMED_UNIT ( * ) SI_UNIT ( $, .STERADIAN. ) SOLID_ANGLE_UNIT ( ) );
#55 = DIMENSIONAL_EXPONENTS ( 1.000000000000000000, 0.0000000000000000000, 0.0000000000000000000, 0.0000000000000000000, 0.0000000000000000000, 0.0000000000000000000, 0.0000000000000000000 ) ;
#56 =( CONVERSION_BASED_UNIT ( 'INCH', #57 ) LENGTH_UNIT ( ) NAMED_UNIT ( #55 ) );
#57 = LENGTH_MEASURE_WITH_UNIT ( LENGTH_MEASURE( 0.02539999999999999900 ), #68 );
#58 = MECHANICAL_DESIGN_GEOMETRIC_PRESENTATION_REPRESENTATION (  '', ( #44 ), #66 ) ;
#59 = SURFACE_STYLE_USAGE ( .BOTH. , #60 ) ;
#60 = SURFACE_SIDE_STYLE ('',( #61 ) ) ;
#61 = SURFACE_STYLE_FILL_AREA ( #62 ) ;
#62 = FILL_AREA_STYLE ('',( #63 ) ) ;
#63 = FILL_AREA_STYLE_COLOUR ( '', #64 ) ;
#64 = COLOUR_RGB ( '',1.000000000000000000, 1.000000000000000000, 1.000000000000000000 ) ;
#65 = FACE_OUTER_BOUND ( 'NONE', #3, .T. ) ;
#66 =( GEOMETRIC_REPRESENTATION_CONTEXT ( 3 ) GLOBAL_UNCERTAINTY_ASSIGNED_CONTEXT ( ( #53 ) ) GLOBAL_UNIT_ASSIGNED_CONTEXT ( ( #56, #67, #54 ) ) REPRESENTATION_CONTEXT ( 'NONE', 'WORKASPACE' ) );
#67 =( NAMED_UNIT ( * ) PLANE_ANGLE_UNIT ( ) SI_UNIT ( $, .RADIAN. ) );
#68 =( LENGTH_UNIT ( ) NAMED_UNIT ( * ) SI_UNIT ( $, .METRE. ) );
#69 = DIMENSIONAL_EXPONENTS ( 1.000000000000000000, 0.0000000000000000000, 0.0000000000000000000, 0.0000000000000000000, 0.0000000000000000000, 0.0000000000000000000, 0.0000000000000000000 ) ;
#70 = STYLED_ITEM ( 'NONE', ( #72 ), #4 ) ;
#71 = LENGTH_MEASURE_WITH_UNIT ( LENGTH_MEASURE( 0.02539999999999999900 ), #73 );
#72 = PRESENTATION_STYLE_ASSIGNMENT (( #59 ) ) ;
#73 =( LENGTH_UNIT ( ) NAMED_UNIT ( * ) SI_UNIT ( $, .METRE. ) );
#74 = PRESENTATION_LAYER_ASSIGNMENT (  '', '', ( #70 ) ) ;
#75 = MECHANICAL_DESIGN_GEOMETRIC_PRESENTATION_REPRESENTATION (  '', ( #70 ), #80 ) ;
#76 =( CONVERSION_BASED_UNIT ( 'INCH', #71 ) LENGTH_UNIT ( ) NAMED_UNIT ( #69 ) );
#77 = UNCERTAINTY_MEASURE_WITH_UNIT (LENGTH_MEASURE( 1.000000000000000100E-005 ), #76, 'distance_accuracy_value', 'NONE');
#78 = MECHANICAL_DESIGN_GEOMETRIC_PRESENTATION_REPRESENTATION (  '', ( #97 ), #110 ) ;
#79 =( NAMED_UNIT ( * ) SI_UNIT ( $, .STERADIAN. ) SOLID_ANGLE_UNIT ( ) );
#80 =( GEOMETRIC_REPRESENTATION_CONTEXT ( 3 ) GLOBAL_UNCERTAINTY_ASSIGNED_CONTEXT ( ( #77 ) ) GLOBAL_UNIT_ASSIGNED_CONTEXT ( ( #76, #81, #79 ) ) REPRESENTATION_CONTEXT ( 'NONE', 'WORKASPACE' ) );
#81 =( NAMED_UNIT ( * ) PLANE_ANGLE_UNIT ( ) SI_UNIT ( $, .RADIAN. ) );
#82 =( LENGTH_UNIT ( ) NAMED_UNIT ( * ) SI_UNIT ( $, .METRE. ) );
#83 =( NAMED_UNIT ( * ) PLANE_ANGLE_UNIT ( ) SI_UNIT ( $, .RADIAN. ) );
#84 =( CONVERSION_BASED_UNIT ( 'INCH', #85 ) LENGTH_UNIT ( ) NAMED_UNIT ( #88 ) );
#85 = LENGTH_MEASURE_WITH_UNIT ( LENGTH_MEASURE( 0.02539999999999999900 ), #82 );
#86 =( NAMED_UNIT ( * ) SI_UNIT ( $, .STERADIAN. ) SOLID_ANGLE_UNIT ( ) );
#87 = UNCERTAINTY_MEASURE_WITH_UNIT (LENGTH_MEASURE( 1.000000000000000100E-005 ), #84, 'distance_accuracy_value', 'NONE');
#88 = DIMENSIONAL_EXPONENTS ( 1.000000000000000000, 0.0000000000000000000, 0.0000000000000000000, 0.0000000000000000000, 0.0000000000000000000, 0.0000000000000000000, 0.0000000000000000000 ) ;
#89 = CARTESIAN_POINT ( 'NONE',  ( 6.123031769111887500E-017, -0.5000000000000001100, -0.04409448818897653700 ) ) ;
#90 = DIRECTION ( 'NONE',  ( -0.0000000000000000000, 3.061515884555943100E-016, -1.000000000000000000 ) ) ;
#91 = AXIS2_PLACEMENT_3D ( 'NONE', #104, #90, #103 ) ;
#92 = FILL_AREA_STYLE_COLOUR ( '', #102 ) ;
#93 = FACE_OUTER_BOUND ( 'NONE', #6, .T. ) ;
#94 = FILL_AREA_STYLE ('',( #92 ) ) ;
#95 = CYLINDRICAL_SURFACE ( 'NONE', #91, 0.5000000000000001100 ) ;
#96 = PRESENTATION_LAYER_ASSIGNMENT (  '', '', ( #97 ) ) ;
#97 = STYLED_ITEM ( 'NONE', ( #98 ), #7 ) ;
#98 = PRESENTATION_STYLE_ASSIGNMENT (( #99 ) ) ;
#99 = SURFACE_STYLE_USAGE ( .BOTH. , #100 ) ;
#100 = SURFACE_SIDE_STYLE ('',( #101 ) ) ;
#101 = SURFACE_STYLE_FILL_AREA ( #94 ) ;
#102 = COLOUR_RGB ( '',1.000000000000000000, 1.000000000000000000, 1.000000000000000000 ) ;
#103 = DIRECTION ( 'NONE',  ( 0.0000000000000000000, 1.000000000000000000, 3.073328992872295900E-016 ) ) ;
#104 = CARTESIAN_POINT ( 'NONE',  ( 0.0000000000000000000, 1.668164560718671700E-017, -0.04409448818897638400 ) ) ;
#105 = CARTESIAN_POINT ( 'NONE',  ( 0.0000000000000000000, 1.558576755906140800E-015, -12.76732283464567700 ) ) ;
#106 = LINE ( 'NONE', #89, #163 ) ;
#107 = CARTESIAN_POINT ( 'NONE',  ( 0.0000000000000000000, 1.668164560718676300E-017, -0.04409448818897653700 ) ) ;
#108 = AXIS2_PLACEMENT_3D ( 'NONE', #107, #113, #112 ) ;
#109 = DIRECTION ( 'NONE',  ( 1.000000000000000000, 0.0000000000000000000, -0.0000000000000000000 ) ) ;
#110 =( GEOMETRIC_REPRESENTATION_CONTEXT ( 3 ) GLOBAL_UNCERTAINTY_ASSIGNED_CONTEXT ( ( #87 ) ) GLOBAL_UNIT_ASSIGNED_CONTEXT ( ( #84, #83, #86 ) ) REPRESENTATION_CONTEXT ( 'NONE', 'WORKASPACE' ) );
#111 = AXIS2_PLACEMENT_3D ( 'NONE', #105, #109, #114 ) ;
#112 = DIRECTION ( 'NONE',  ( 0.0000000000000000000, 1.000000000000000000, 3.073328992872296400E-016 ) ) ;
#113 = DIRECTION ( 'NONE',  ( -0.0000000000000000000, 3.061515884555943100E-016, -1.000000000000000000 ) ) ;
#114 = DIRECTION ( 'NONE',  ( 0.0000000000000000000, 1.000000000000000000, 3.411766769998328600E-016 ) ) ;
#115 = CIRCLE ( 'NONE', #108, 0.5000000000000000000 ) ;
#116 = SPHERICAL_SURFACE ( 'NONE', #111, 12.81141732283465200 ) ;
#117 = UNCERTAINTY_MEASURE_WITH_UNIT (LENGTH_MEASURE( 1.000000000000000100E-005 ), #205, 'distance_accuracy_value', 'NONE');
#118 =( NAMED_UNIT ( * ) SI_UNIT ( $, .STERADIAN. ) SOLID_ANGLE_UNIT ( ) );
#119 = CARTESIAN_POINT ( 'NONE',  ( 0.0000000000000000000, 1.668164560718671700E-017, -0.04409448818897638400 ) ) ;
#120 = CYLINDRICAL_SURFACE ( 'NONE', #177, 0.5000000000000001100 ) ;
#121 =( GEOMETRIC_REPRESENTATION_CONTEXT ( 3 ) GLOBAL_UNCERTAINTY_ASSIGNED_CONTEXT ( ( #122 ) ) GLOBAL_UNIT_ASSIGNED_CONTEXT ( ( #125, #124, #123 ) ) REPRESENTATION_CONTEXT ( 'NONE', 'WORKASPACE' ) );
#122 = UNCERTAINTY_MEASURE_WITH_UNIT (LENGTH_MEASURE( 1.000000000000000100E-005 ), #125, 'distance_accuracy_value', 'NONE');
#123 =( NAMED_UNIT ( * ) SI_UNIT ( $, .STERADIAN. ) SOLID_ANGLE_UNIT ( ) );
#124 =( NAMED_UNIT ( * ) PLANE_ANGLE_UNIT ( ) SI_UNIT ( $, .RADIAN. ) );
#125 =( CONVERSION_BASED_UNIT ( 'INCH', #126 ) LENGTH_UNIT ( ) NAMED_UNIT ( #127 ) );
#126 = LENGTH_MEASURE_WITH_UNIT ( LENGTH_MEASURE( 0.02539999999999999900 ), #224 );
#127 = DIMENSIONAL_EXPONENTS ( 1.000000000000000000, 0.0000000000000000000, 0.0000000000000000000, 0.0000000000000000000, 0.0000000000000000000, 0.0000000000000000000, 0.0000000000000000000 ) ;
#128 = MECHANICAL_DESIGN_GEOMETRIC_PRESENTATION_REPRESENTATION (  '', ( #199 ), #131 ) ;
#129 = PRESENTATION_LAYER_ASSIGNMENT (  '', '', ( #199 ) ) ;
#130 = PLANE ( 'NONE',  #186 ) ;
#131 =( GEOMETRIC_REPRESENTATION_CONTEXT ( 3 ) GLOBAL_UNCERTAINTY_ASSIGNED_CONTEXT ( ( #178 ) ) GLOBAL_UNIT_ASSIGNED_CONTEXT ( ( #203, #202, #132 ) ) REPRESENTATION_CONTEXT ( 'NONE', 'WORKASPACE' ) );
#132 =( NAMED_UNIT ( * ) SI_UNIT ( $, .STERADIAN. ) SOLID_ANGLE_UNIT ( ) );
#133 = UNCERTAINTY_MEASURE_WITH_UNIT (LENGTH_MEASURE( 1.000000000000000100E-005 ), #136, 'distance_accuracy_value', 'NONE');
#134 =( NAMED_UNIT ( * ) SI_UNIT ( $, .STERADIAN. ) SOLID_ANGLE_UNIT ( ) );
#135 =( NAMED_UNIT ( * ) PLANE_ANGLE_UNIT ( ) SI_UNIT ( $, .RADIAN. ) );
#136 =( CONVERSION_BASED_UNIT ( 'INCH', #137 ) LENGTH_UNIT ( ) NAMED_UNIT ( #138 ) );
#137 = LENGTH_MEASURE_WITH_UNIT ( LENGTH_MEASURE( 0.02539999999999999900 ), #139 );
#138 = DIMENSIONAL_EXPONENTS ( 1.000000000000000000, 0.0000000000000000000, 0.0000000000000000000, 0.0000000000000000000, 0.0000000000000000000, 0.0000000000000000000, 0.0000000000000000000 ) ;
#139 =( LENGTH_UNIT ( ) NAMED_UNIT ( * ) SI_UNIT ( $, .METRE. ) );
#140 = CARTESIAN_POINT ( 'NONE',  ( 6.123031769112082300E-017, -0.5000000000000184300, 0.03433384798051212400 ) ) ;
#141 = DIRECTION ( 'NONE',  ( 0.0000000000000000000, 1.000000000000000000, 3.073328992872295900E-016 ) ) ;
#142 = DIRECTION ( 'NONE',  ( -0.0000000000000000000, 3.061515884555943100E-016, -1.000000000000000000 ) ) ;
#143 = CARTESIAN_POINT ( 'NONE',  ( 0.0000000000000000000, -7.329314091031532500E-018, 0.03433384798051212400 ) ) ;
#144 = AXIS2_PLACEMENT_3D ( 'NONE', #143, #142, #141 ) ;
#145 = DIRECTION ( 'NONE',  ( -0.0000000000000000000, 3.061515884555943100E-016, -1.000000000000000000 ) ) ;
#146 = CIRCLE ( 'NONE', #144, 0.5000000000000001100 ) ;
#147 = CARTESIAN_POINT ( 'NONE',  ( 0.0000000000000000000, -1.579211855096536000E-015, 0.04409448818897458000 ) ) ;
#148 = DIRECTION ( 'NONE',  ( 0.0000000000000000000, 0.0000000000000000000, 1.000000000000000000 ) ) ;
#149 = DIRECTION ( 'NONE',  ( -1.000000000000000000, 0.0000000000000000000, 0.0000000000000000000 ) ) ;
#150 = CARTESIAN_POINT ( 'NONE',  ( 0.0000000000000000000, 1.558576755906140800E-015, -12.76732283464567700 ) ) ;
#151 = AXIS2_PLACEMENT_3D ( 'NONE', #150, #149, #148 ) ;
#152 = CIRCLE ( 'NONE', #151, 12.81141732283465200 ) ;
#153 = DIRECTION ( 'NONE',  ( -1.224606353822377300E-016, 1.000000000000000000, 0.0000000000000000000 ) ) ;
#154 = DIRECTION ( 'NONE',  ( 1.000000000000000000, 1.224606353822377300E-016, 3.749151804555343600E-032 ) ) ;
#155 = CARTESIAN_POINT ( 'NONE',  ( 0.0000000000000000000, 1.558576755906140800E-015, -12.76732283464567700 ) ) ;
#156 = AXIS2_PLACEMENT_3D ( 'NONE', #155, #154, #153 ) ;
#157 = CIRCLE ( 'NONE', #156, 12.81141732283465200 ) ;
#158 = DIRECTION ( 'NONE',  ( -0.0000000000000000000, 3.061515884555943100E-016, -1.000000000000000000 ) ) ;
#159 = VECTOR ( 'NONE', #158, 39.37007874015748100 ) ;
#160 = CARTESIAN_POINT ( 'NONE',  ( 0.0000000000000000000, 0.5000000000000001100, -0.04409448818897623200 ) ) ;
#161 = LINE ( 'NONE', #160, #159 ) ;
#162 =( LENGTH_UNIT ( ) NAMED_UNIT ( * ) SI_UNIT ( $, .METRE. ) );
#163 = VECTOR ( 'NONE', #145, 39.37007874015748100 ) ;
#164 = DIRECTION ( 'NONE',  ( 0.0000000000000000000, 1.000000000000000000, 3.073328992872296400E-016 ) ) ;
#165 = DIRECTION ( 'NONE',  ( -0.0000000000000000000, 3.061515884555943100E-016, -1.000000000000000000 ) ) ;
#166 = CARTESIAN_POINT ( 'NONE',  ( 0.0000000000000000000, 1.668164560718676300E-017, -0.04409448818897653700 ) ) ;
#167 = AXIS2_PLACEMENT_3D ( 'NONE', #166, #165, #164 ) ;
#168 = CIRCLE ( 'NONE', #167, 0.5000000000000000000 ) ;
#169 = CARTESIAN_POINT ( 'NONE',  ( 0.0000000000000000000, 0.5000000000000000000, -0.04409448818897638400 ) ) ;
#170 = DIRECTION ( 'NONE',  ( 0.0000000000000000000, 1.000000000000000000, 3.073328992872295900E-016 ) ) ;
#171 = DIRECTION ( 'NONE',  ( -0.0000000000000000000, 3.061515884555943100E-016, -1.000000000000000000 ) ) ;
#172 = CARTESIAN_POINT ( 'NONE',  ( 0.0000000000000000000, -7.329314091031532500E-018, 0.03433384798051212400 ) ) ;
#173 = AXIS2_PLACEMENT_3D ( 'NONE', #172, #171, #170 ) ;
#174 = CIRCLE ( 'NONE', #173, 0.5000000000000001100 ) ;
#175 = DIRECTION ( 'NONE',  ( 0.0000000000000000000, 1.000000000000000000, 3.073328992872295900E-016 ) ) ;
#176 = DIRECTION ( 'NONE',  ( -0.0000000000000000000, 3.061515884555943100E-016, -1.000000000000000000 ) ) ;
#177 = AXIS2_PLACEMENT_3D ( 'NONE', #119, #176, #175 ) ;
#178 = UNCERTAINTY_MEASURE_WITH_UNIT (LENGTH_MEASURE( 1.000000000000000100E-005 ), #203, 'distance_accuracy_value', 'NONE');
#179 = COLOUR_RGB ( '',1.000000000000000000, 1.000000000000000000, 1.000000000000000000 ) ;
#180 = FACE_OUTER_BOUND ( 'NONE', #21, .T. ) ;
#181 = DIRECTION ( 'NONE',  ( 0.0000000000000000000, 1.000000000000000000, 3.061515884555943100E-016 ) ) ;
#182 = DIRECTION ( 'NONE',  ( -0.0000000000000000000, 3.061515884555943100E-016, -1.000000000000000000 ) ) ;
#183 = FILL_AREA_STYLE ('',( #184 ) ) ;
#184 = FILL_AREA_STYLE_COLOUR ( '', #179 ) ;
#185 = CARTESIAN_POINT ( 'NONE',  ( 0.0000000000000000000, 1.668164560718673800E-017, -0.04409448818897646100 ) ) ;
#186 = AXIS2_PLACEMENT_3D ( 'NONE', #185, #182, #181 ) ;
#187 = COLOUR_RGB ( '',1.000000000000000000, 1.000000000000000000, 1.000000000000000000 ) ;
#188 = SURFACE_STYLE_FILL_AREA ( #189 ) ;
#189 = FILL_AREA_STYLE ('',( #242 ) ) ;
#190 = LENGTH_MEASURE_WITH_UNIT ( LENGTH_MEASURE( 0.02539999999999999900 ), #162 );
#191 =( LENGTH_UNIT ( ) NAMED_UNIT ( * ) SI_UNIT ( $, .METRE. ) );
#192 = MECHANICAL_DESIGN_GEOMETRIC_PRESENTATION_REPRESENTATION (  '', ( #194 ), #241 ) ;
#193 = PRESENTATION_LAYER_ASSIGNMENT (  '', '', ( #194 ) ) ;
#194 = STYLED_ITEM ( 'NONE', ( #195 ), #27 ) ;
#195 = PRESENTATION_STYLE_ASSIGNMENT (( #196 ) ) ;
#196 = SURFACE_STYLE_USAGE ( .BOTH. , #197 ) ;
#197 = SURFACE_SIDE_STYLE ('',( #198 ) ) ;
#198 = SURFACE_STYLE_FILL_AREA ( #183 ) ;
#199 = STYLED_ITEM ( 'NONE', ( #200 ), #22 ) ;
#200 = PRESENTATION_STYLE_ASSIGNMENT (( #221 ) ) ;
#201 = CARTESIAN_POINT ( 'NONE',  ( 6.123031769111887500E-017, -0.5000000000000000000, -0.04409448818897669000 ) ) ;
#202 =( NAMED_UNIT ( * ) PLANE_ANGLE_UNIT ( ) SI_UNIT ( $, .RADIAN. ) );
#203 =( CONVERSION_BASED_UNIT ( 'INCH', #190 ) LENGTH_UNIT ( ) NAMED_UNIT ( #204 ) );
#204 = DIMENSIONAL_EXPONENTS ( 1.000000000000000000, 0.0000000000000000000, 0.0000000000000000000, 0.0000000000000000000, 0.0000000000000000000, 0.0000000000000000000, 0.0000000000000000000 ) ;
#205 =( CONVERSION_BASED_UNIT ( 'INCH', #206 ) LENGTH_UNIT ( ) NAMED_UNIT ( #207 ) );
#206 = LENGTH_MEASURE_WITH_UNIT ( LENGTH_MEASURE( 0.02539999999999999900 ), #208 );
#207 = DIMENSIONAL_EXPONENTS ( 1.000000000000000000, 0.0000000000000000000, 0.0000000000000000000, 0.0000000000000000000, 0.0000000000000000000, 0.0000000000000000000, 0.0000000000000000000 ) ;
#208 =( LENGTH_UNIT ( ) NAMED_UNIT ( * ) SI_UNIT ( $, .METRE. ) );
#209 = MECHANICAL_DESIGN_GEOMETRIC_PRESENTATION_REPRESENTATION (  '', ( #211 ), #258 ) ;
#210 = PRESENTATION_LAYER_ASSIGNMENT (  '', '', ( #211 ) ) ;
#211 = STYLED_ITEM ( 'NONE', ( #212 ), #219 ) ;
#212 = PRESENTATION_STYLE_ASSIGNMENT (( #213 ) ) ;
#213 = SURFACE_STYLE_USAGE ( .BOTH. , #214 ) ;
#214 = SURFACE_SIDE_STYLE ('',( #215 ) ) ;
#215 = SURFACE_STYLE_FILL_AREA ( #216 ) ;
#216 = FILL_AREA_STYLE ('',( #217 ) ) ;
#217 = FILL_AREA_STYLE_COLOUR ( '', #218 ) ;
#218 = COLOUR_RGB ( '',0.7960784313725489700, 0.8235294117647058400, 0.9372549019607843100 ) ;
#219 = ADVANCED_BREP_SHAPE_REPRESENTATION ( '3335-E0W', ( #2, #257 ), #220 ) ;
#220 =( GEOMETRIC_REPRESENTATION_CONTEXT ( 3 ) GLOBAL_UNCERTAINTY_ASSIGNED_CONTEXT ( ( #133 ) ) GLOBAL_UNIT_ASSIGNED_CONTEXT ( ( #136, #135, #134 ) ) REPRESENTATION_CONTEXT ( 'NONE', 'WORKASPACE' ) );
#221 = SURFACE_STYLE_USAGE ( .BOTH. , #222 ) ;
#222 = SURFACE_SIDE_STYLE ('',( #188 ) ) ;
#223 = FACE_OUTER_BOUND ( 'NONE', #23, .T. ) ;
#224 =( LENGTH_UNIT ( ) NAMED_UNIT ( * ) SI_UNIT ( $, .METRE. ) );
#225 = MECHANICAL_DESIGN_GEOMETRIC_PRESENTATION_REPRESENTATION (  '', ( #227 ), #121 ) ;
#226 = PRESENTATION_LAYER_ASSIGNMENT (  '', '', ( #227 ) ) ;
#227 = STYLED_ITEM ( 'NONE', ( #228 ), #28 ) ;
#228 = PRESENTATION_STYLE_ASSIGNMENT (( #229 ) ) ;
#229 = SURFACE_STYLE_USAGE ( .BOTH. , #230 ) ;
#230 = SURFACE_SIDE_STYLE ('',( #231 ) ) ;
#231 = SURFACE_STYLE_FILL_AREA ( #232 ) ;
#232 = FILL_AREA_STYLE ('',( #239 ) ) ;
#233 = COLOUR_RGB ( '',1.000000000000000000, 1.000000000000000000, 1.000000000000000000 ) ;
#234 = DIRECTION ( 'NONE',  ( 0.0000000000000000000, 1.000000000000000000, 3.411766769998328600E-016 ) ) ;
#235 = DIRECTION ( 'NONE',  ( 1.000000000000000000, 0.0000000000000000000, -0.0000000000000000000 ) ) ;
#236 = CARTESIAN_POINT ( 'NONE',  ( 0.0000000000000000000, 1.558576755906140800E-015, -12.76732283464567700 ) ) ;
#237 = AXIS2_PLACEMENT_3D ( 'NONE', #236, #235, #234 ) ;
#238 = FACE_OUTER_BOUND ( 'NONE', #9, .T. ) ;
#239 = FILL_AREA_STYLE_COLOUR ( '', #233 ) ;
#240 = SPHERICAL_SURFACE ( 'NONE', #237, 12.81141732283465200 ) ;
#241 =( GEOMETRIC_REPRESENTATION_CONTEXT ( 3 ) GLOBAL_UNCERTAINTY_ASSIGNED_CONTEXT ( ( #243 ) ) GLOBAL_UNIT_ASSIGNED_CONTEXT ( ( #246, #245, #244 ) ) REPRESENTATION_CONTEXT ( 'NONE', 'WORKASPACE' ) );
#242 = FILL_AREA_STYLE_COLOUR ( '', #187 ) ;
#243 = UNCERTAINTY_MEASURE_WITH_UNIT (LENGTH_MEASURE( 1.000000000000000100E-005 ), #246, 'distance_accuracy_value', 'NONE');
#244 =( NAMED_UNIT ( * ) SI_UNIT ( $, .STERADIAN. ) SOLID_ANGLE_UNIT ( ) );
#245 =( NAMED_UNIT ( * ) PLANE_ANGLE_UNIT ( ) SI_UNIT ( $, .RADIAN. ) );
#246 =( CONVERSION_BASED_UNIT ( 'INCH', #247 ) LENGTH_UNIT ( ) NAMED_UNIT ( #248 ) );
#247 = LENGTH_MEASURE_WITH_UNIT ( LENGTH_MEASURE( 0.02539999999999999900 ), #191 );
#248 = DIMENSIONAL_EXPONENTS ( 1.000000000000000000, 0.0000000000000000000, 0.0000000000000000000, 0.0000000000000000000, 0.0000000000000000000, 0.0000000000000000000, 0.0000000000000000000 ) ;
#249 = DIRECTION ( 'NONE',  ( 1.000000000000000000, 0.0000000000000000000, 0.0000000000000000000 ) ) ;
#250 = CARTESIAN_POINT ( 'NONE',  ( 0.0000000000000000000, 0.0000000000000000000, 0.0000000000000000000 ) ) ;
#251 = PRODUCT ( '3335-E0W', '3335-E0W', '', ( #252 ) ) ;
#252 = PRODUCT_CONTEXT ( 'NONE', #254, 'mechanical' ) ;
#253 = APPLICATION_PROTOCOL_DEFINITION ( 'draft international standard', 'automotive_design', 1998, #254 ) ;
#254 = APPLICATION_CONTEXT ( 'automotive_design' ) ;
#255 = SHAPE_DEFINITION_REPRESENTATION ( #259, #219 ) ;
#256 = DIRECTION ( 'NONE',  ( 0.0000000000000000000, 0.0000000000000000000, 1.000000000000000000 ) ) ;
#257 = AXIS2_PLACEMENT_3D ( 'NONE', #250, #256, #249 ) ;
#258 =( GEOMETRIC_REPRESENTATION_CONTEXT ( 3 ) GLOBAL_UNCERTAINTY_ASSIGNED_CONTEXT ( ( #117 ) ) GLOBAL_UNIT_ASSIGNED_CONTEXT ( ( #205, #37, #118 ) ) REPRESENTATION_CONTEXT ( 'NONE', 'WORKASPACE' ) );
#259 = PRODUCT_DEFINITION_SHAPE ( 'NONE', 'NONE',  #262 ) ;
#260 = PRODUCT_RELATED_PRODUCT_CATEGORY ( 'part', '', ( #251 ) ) ;
#261 = PRODUCT_DEFINITION_FORMATION_WITH_SPECIFIED_SOURCE ( 'ANY', '', #251, .NOT_KNOWN. ) ;
#262 = PRODUCT_DEFINITION ( 'UNKNOWN', '', #261, #263 ) ;
#263 = PRODUCT_DEFINITION_CONTEXT ( 'detailed design', #265, 'design' ) ;
#264 = APPLICATION_PROTOCOL_DEFINITION ( 'draft international standard', 'automotive_design', 1998, #265 ) ;
#265 = APPLICATION_CONTEXT ( 'automotive_design' ) ;
ENDSEC;
END-ISO-10303-21;
