ISO-10303-21;
HEADER;
FILE_DESCRIPTION (( 'STEP AP203' ),
    '1' );
FILE_NAME ('TTN206027-E0W.STEP',
    '2020-01-17T20:17:30',
    ( '' ),
    ( '' ),
    'SwSTEP 2.0',
    'SolidWorks 2018',
    '' );
FILE_SCHEMA (( 'CONFIG_CONTROL_DESIGN' ));
ENDSEC;

DATA;
#1 = APPROVAL ( #81, 'UNSPECIFIED' ) ;
#2 = DIRECTION ( 'NONE',  ( 0.0000000000000000000, 0.0000000000000000000, 1.000000000000000000 ) ) ;
#3 = CIRCLE ( 'NONE', #162, 209.0000000000000000 ) ;
#4 = ORIENTED_EDGE ( 'NONE', *, *, #108, .T. ) ;
#5 = DIRECTION ( 'NONE',  ( 0.0000000000000000000, -1.224646799147353207E-16, 1.000000000000000000 ) ) ;
#6 = DIRECTION ( 'NONE',  ( -0.0000000000000000000, 1.224646799147353947E-16, -1.000000000000000000 ) ) ;
#7 = ORIENTED_EDGE ( 'NONE', *, *, #100, .F. ) ;
#8 = DIRECTION ( 'NONE',  ( 0.0000000000000000000, -1.000000000000000000, -1.208642382658147351E-16 ) ) ;
#9 = DIRECTION ( 'NONE',  ( -0.0000000000000000000, 1.224646799147353207E-16, -1.000000000000000000 ) ) ;
#10 = DIRECTION ( 'NONE',  ( -0.0000000000000000000, 1.224646799147353207E-16, -1.000000000000000000 ) ) ;
#11 = AXIS2_PLACEMENT_3D ( 'NONE', #99, #103, #77 ) ;
#12 = CIRCLE ( 'NONE', #80, 12.69999999999999929 ) ;
#13 = CALENDAR_DATE ( 2020, 17, 1 ) ;
#14 = PERSON_AND_ORGANIZATION_ROLE ( 'creator' ) ;
#15 = VERTEX_POINT ( 'NONE', #228 ) ;
#16 = ORIENTED_EDGE ( 'NONE', *, *, #43, .T. ) ;
#17 = CC_DESIGN_DATE_AND_TIME_ASSIGNMENT ( #254, #223, ( #204 ) ) ;
#18 = ORIENTED_EDGE ( 'NONE', *, *, #297, .T. ) ;
#19 = COORDINATED_UNIVERSAL_TIME_OFFSET ( 5, 0, .BEHIND. ) ;
#20 = ORIENTED_EDGE ( 'NONE', *, *, #135, .F. ) ;
#21 = CONICAL_SURFACE ( 'NONE', #132, 12.55857864376269006, 0.7853981633974498333 ) ;
#22 = DIRECTION ( 'NONE',  ( -0.0000000000000000000, 1.224646799147353207E-16, -1.000000000000000000 ) ) ;
#23 = DIRECTION ( 'NONE',  ( 0.0000000000000000000, 1.000000000000000000, 1.195183497228115281E-16 ) ) ;
#24 = AXIS2_PLACEMENT_3D ( 'NONE', #268, #10, #36 ) ;
#25 = LOCAL_TIME ( 15, 17, 30.00000000000000000, #38 ) ;
#26 = CARTESIAN_POINT ( 'NONE',  ( 0.0000000000000000000, 12.49999999999999645, 2.000000000000000888 ) ) ;
#27 = CALENDAR_DATE ( 2020, 17, 1 ) ;
#28 = CARTESIAN_POINT ( 'NONE',  ( 0.0000000000000000000, 5.539607112548648709E-17, -1.622343248388477210 ) ) ;
#29 = MECHANICAL_CONTEXT ( 'NONE', #101, 'mechanical' ) ;
#30 = AXIS2_PLACEMENT_3D ( 'NONE', #54, #146, #165 ) ;
#31 = ORIENTED_EDGE ( 'NONE', *, *, #153, .T. ) ;
#32 = APPLICATION_PROTOCOL_DEFINITION ( 'international standard', 'config_control_design', 1994, #169 ) ;
#33 = VERTEX_POINT ( 'NONE', #138 ) ;
#34 = LINE ( 'NONE', #48, #122 ) ;
#35 = CONICAL_SURFACE ( 'NONE', #294, 12.69999999999999929, 0.7853981633974569387 ) ;
#36 = DIRECTION ( 'NONE',  ( 0.0000000000000000000, 1.000000000000000000, 1.365923996832131609E-16 ) ) ;
#37 = CC_DESIGN_APPROVAL ( #1, ( #204 ) ) ;
#38 = COORDINATED_UNIVERSAL_TIME_OFFSET ( 5, 0, .BEHIND. ) ;
#39 = ORIENTED_EDGE ( 'NONE', *, *, #269, .T. ) ;
#40 = ORIENTED_EDGE ( 'NONE', *, *, #155, .T. ) ;
#41 = LINE ( 'NONE', #234, #133 ) ;
#42 =( GEOMETRIC_REPRESENTATION_CONTEXT ( 3 ) GLOBAL_UNCERTAINTY_ASSIGNED_CONTEXT ( ( #283 ) ) GLOBAL_UNIT_ASSIGNED_CONTEXT ( ( #293, #222, #217 ) ) REPRESENTATION_CONTEXT ( 'NONE', 'WORKASPACE' ) );
#43 = EDGE_CURVE ( 'NONE', #15, #159, #253, .T. ) ;
#44 = VECTOR ( 'NONE', #123, 1000.000000000000114 ) ;
#45 = DIRECTION ( 'NONE',  ( -0.0000000000000000000, 1.224646799147353947E-16, -1.000000000000000000 ) ) ;
#46 = PRODUCT_RELATED_PRODUCT_CATEGORY ( 'detail', '', ( #232 ) ) ;
#47 = DIRECTION ( 'NONE',  ( 0.0000000000000000000, -1.000000000000000000, -1.195183497228115281E-16 ) ) ;
#48 = CARTESIAN_POINT ( 'NONE',  ( 1.555301434917138433E-15, -12.69999999999999929, 1.799999999999998934 ) ) ;
#49 = CIRCLE ( 'NONE', #231, 12.69999999999999929 ) ;
#50 = EDGE_CURVE ( 'NONE', #15, #177, #3, .T. ) ;
#51 = DIRECTION ( 'NONE',  ( -0.0000000000000000000, 1.224646799147353207E-16, -1.000000000000000000 ) ) ;
#52 = DATE_AND_TIME ( #179, #86 ) ;
#53 = APPLICATION_PROTOCOL_DEFINITION ( 'international standard', 'config_control_design', 1994, #101 ) ;
#54 = CARTESIAN_POINT ( 'NONE',  ( 0.0000000000000000000, 0.0000000000000000000, 0.0000000000000000000 ) ) ;
#55 = EDGE_LOOP ( 'NONE', ( #260, #16, #92, #167 ) ) ;
#56 = FACE_OUTER_BOUND ( 'NONE', #55, .T. ) ;
#57 = ORIENTED_EDGE ( 'NONE', *, *, #116, .F. ) ;
#58 = ORIENTED_EDGE ( 'NONE', *, *, #59, .F. ) ;
#59 = EDGE_CURVE ( 'NONE', #159, #263, #12, .T. ) ;
#60 = CONICAL_SURFACE ( 'NONE', #289, 12.55857864376269006, 0.7853981633974498333 ) ;
#61 = APPROVAL_PERSON_ORGANIZATION ( #189, #216, #121 ) ;
#62 = DIRECTION ( 'NONE',  ( 0.0000000000000000000, -1.000000000000000000, -1.387778780781446169E-16 ) ) ;
#63 = CARTESIAN_POINT ( 'NONE',  ( 0.0000000000000000000, -3.804610210911081720E-14, 207.0000000000000000 ) ) ;
#64 = EDGE_LOOP ( 'NONE', ( #149, #20, #198, #7 ) ) ;
#65 = SPHERICAL_SURFACE ( 'NONE', #274, 209.0000000000000000 ) ;
#66 = DIRECTION ( 'NONE',  ( 1.000000000000000000, 1.224646799147353207E-16, 1.499759782661857608E-32 ) ) ;
#67 = CALENDAR_DATE ( 2020, 17, 1 ) ;
#68 = ADVANCED_FACE ( 'NONE', ( #276 ), #91, .T. ) ;
#69 = DIRECTION ( 'NONE',  ( 8.659560562355009279E-17, -0.7071067811865535679, -0.7071067811865415775 ) ) ;
#70 = DIRECTION ( 'NONE',  ( -1.224646799147353207E-16, 1.000000000000000000, 0.0000000000000000000 ) ) ;
#71 = ADVANCED_FACE ( 'NONE', ( #195 ), #35, .T. ) ;
#72 = CARTESIAN_POINT ( 'NONE',  ( 0.0000000000000000000, 3.465750441587040113E-16, -2.000000000000001776 ) ) ;
#73 = CC_DESIGN_PERSON_AND_ORGANIZATION_ASSIGNMENT ( #239, #190, ( #232 ) ) ;
#74 = CARTESIAN_POINT ( 'NONE',  ( 1.555301434917138433E-15, -12.69999999999999929, -1.480921892151169317 ) ) ;
#75 = PERSON_AND_ORGANIZATION_ROLE ( 'creator' ) ;
#76 = ORIENTED_EDGE ( 'NONE', *, *, #242, .F. ) ;
#77 = DIRECTION ( 'NONE',  ( 0.0000000000000000000, 1.000000000000000000, 1.208642382658147351E-16 ) ) ;
#78 = EDGE_LOOP ( 'NONE', ( #89, #39 ) ) ;
#79 = COORDINATED_UNIVERSAL_TIME_OFFSET ( 5, 0, .BEHIND. ) ;
#80 = AXIS2_PLACEMENT_3D ( 'NONE', #184, #240, #23 ) ;
#81 = APPROVAL_STATUS ( 'not_yet_approved' ) ;
#82 = PRODUCT_DEFINITION ( 'UNKNOWN', '', #87, #215 ) ;
#83 = EDGE_LOOP ( 'NONE', ( #57, #40, #255 ) ) ;
#84 = ORIENTED_EDGE ( 'NONE', *, *, #88, .F. ) ;
#85 = CIRCLE ( 'NONE', #11, 12.55857864376269006 ) ;
#86 = LOCAL_TIME ( 15, 17, 30.00000000000000000, #79 ) ;
#87 = PRODUCT_DEFINITION_FORMATION_WITH_SPECIFIED_SOURCE ( 'ANY', '', #232, .NOT_KNOWN. ) ;
#88 = EDGE_CURVE ( 'NONE', #226, #33, #49, .T. ) ;
#89 = ORIENTED_EDGE ( 'NONE', *, *, #135, .T. ) ;
#90 = ORIENTED_EDGE ( 'NONE', *, *, #155, .F. ) ;
#91 = PLANE ( 'NONE',  #111 ) ;
#92 = ORIENTED_EDGE ( 'NONE', *, *, #59, .T. ) ;
#93 = DIRECTION ( 'NONE',  ( 0.0000000000000000000, -1.000000000000000000, -1.208642382658147351E-16 ) ) ;
#94 = DIRECTION ( 'NONE',  ( 0.0000000000000000000, -1.224646799147353207E-16, 1.000000000000000000 ) ) ;
#95 = DIRECTION ( 'NONE',  ( 0.0000000000000000000, 1.000000000000000000, 1.195183497228115281E-16 ) ) ;
#96 = AXIS2_PLACEMENT_3D ( 'NONE', #281, #51, #207 ) ;
#97 = CARTESIAN_POINT ( 'NONE',  ( 0.0000000000000000000, -3.804610210911081720E-14, 207.0000000000000000 ) ) ;
#98 = LOCAL_TIME ( 15, 17, 30.00000000000000000, #19 ) ;
#99 = CARTESIAN_POINT ( 'NONE',  ( 0.0000000000000000000, 5.539607112548648709E-17, -1.622343248388477210 ) ) ;
#100 = EDGE_CURVE ( 'NONE', #33, #226, #109, .T. ) ;
#101 = APPLICATION_CONTEXT ( 'configuration controlled 3d designs of mechanical parts and assemblies' ) ;
#102 = EDGE_LOOP ( 'NONE', ( #270, #219, #164 ) ) ;
#103 = DIRECTION ( 'NONE',  ( -0.0000000000000000000, 1.224646799147353207E-16, -1.000000000000000000 ) ) ;
#104 = PERSON_AND_ORGANIZATION_ROLE ( 'classification_officer' ) ;
#105 = APPROVAL_ROLE ( '' ) ;
#106 = CC_DESIGN_APPROVAL ( #292, ( #82 ) ) ;
#107 = EDGE_LOOP ( 'NONE', ( #249, #90, #18, #4 ) ) ;
#108 = EDGE_CURVE ( 'NONE', #263, #159, #172, .T. ) ;
#109 = CIRCLE ( 'NONE', #257, 12.69999999999999929 ) ;
#110 = CIRCLE ( 'NONE', #158, 12.55857864376269006 ) ;
#111 = AXIS2_PLACEMENT_3D ( 'NONE', #211, #280, #284 ) ;
#112 = SHAPE_DEFINITION_REPRESENTATION ( #180, #246 ) ;
#113 = AXIS2_PLACEMENT_3D ( 'NONE', #114, #45, #95 ) ;
#114 = CARTESIAN_POINT ( 'NONE',  ( 0.0000000000000000000, -3.637200993467638614E-16, 1.800000000000000488 ) ) ;
#115 = CARTESIAN_POINT ( 'NONE',  ( 0.0000000000000000000, -3.804610210911081720E-14, 207.0000000000000000 ) ) ;
#116 = EDGE_CURVE ( 'NONE', #193, #177, #235, .T. ) ;
#117 = DIRECTION ( 'NONE',  ( -0.0000000000000000000, 1.224646799147353947E-16, -1.000000000000000000 ) ) ;
#118 = CYLINDRICAL_SURFACE ( 'NONE', #143, 12.69999999999999929 ) ;
#119 = DIRECTION ( 'NONE',  ( -1.000000000000000000, 0.0000000000000000000, 0.0000000000000000000 ) ) ;
#120 = ADVANCED_FACE ( 'NONE', ( #151 ), #65, .T. ) ;
#121 = APPROVAL_ROLE ( '' ) ;
#122 = VECTOR ( 'NONE', #69, 1000.000000000000000 ) ;
#123 = DIRECTION ( 'NONE',  ( 0.0000000000000000000, 0.7071067811865536790, -0.7071067811865413555 ) ) ;
#124 = ADVANCED_FACE ( 'NONE', ( #229 ), #275, .T. ) ;
#125 = DATE_AND_TIME ( #27, #25 ) ;
#126 = CARTESIAN_POINT ( 'NONE',  ( 0.0000000000000000000, 12.69999999999999929, 1.800000000000001821 ) ) ;
#127 = CARTESIAN_POINT ( 'NONE',  ( 0.0000000000000000000, -12.55857864376269006, -1.622343248388478765 ) ) ;
#128 = CARTESIAN_POINT ( 'NONE',  ( 0.0000000000000000000, -3.882130353297108713E-16, 1.999999999999999112 ) ) ;
#129 = VECTOR ( 'NONE', #301, 1000.000000000000000 ) ;
#130 = DATE_AND_TIME ( #13, #197 ) ;
#131 = AXIS2_PLACEMENT_3D ( 'NONE', #144, #94, #62 ) ;
#132 = AXIS2_PLACEMENT_3D ( 'NONE', #150, #271, #8 ) ;
#133 = VECTOR ( 'NONE', #22, 1000.000000000000000 ) ;
#134 = ORIENTED_EDGE ( 'NONE', *, *, #277, .F. ) ;
#135 = EDGE_CURVE ( 'NONE', #248, #176, #299, .T. ) ;
#136 = VECTOR ( 'NONE', #9, 1000.000000000000000 ) ;
#137 = PERSON_AND_ORGANIZATION ( #157, #251 ) ;
#138 = CARTESIAN_POINT ( 'NONE',  ( 1.555301434917138433E-15, -12.69999999999999929, 1.799999999999998934 ) ) ;
#139 = EDGE_CURVE ( 'NONE', #226, #159, #41, .T. ) ;
#140 = DIRECTION ( 'NONE',  ( 0.0000000000000000000, -1.000000000000000000, -1.195183497228115281E-16 ) ) ;
#141 = EDGE_LOOP ( 'NONE', ( #218, #156, #58, #154 ) ) ;
#142 = CARTESIAN_POINT ( 'NONE',  ( 0.0000000000000000000, 1.016456843292303500E-16, -2.000000000000000000 ) ) ;
#143 = AXIS2_PLACEMENT_3D ( 'NONE', #142, #182, #161 ) ;
#144 = CARTESIAN_POINT ( 'NONE',  ( 0.0000000000000000000, -3.882130353297108713E-16, 1.999999999999999112 ) ) ;
#145 = APPROVAL_PERSON_ORGANIZATION ( #286, #292, #220 ) ;
#146 = DIRECTION ( 'NONE',  ( 0.0000000000000000000, 0.0000000000000000000, 1.000000000000000000 ) ) ;
#147 = DIRECTION ( 'NONE',  ( 0.0000000000000000000, -1.224646799147353207E-16, 1.000000000000000000 ) ) ;
#148 = ADVANCED_FACE ( 'NONE', ( #285 ), #60, .T. ) ;
#149 = ORIENTED_EDGE ( 'NONE', *, *, #153, .F. ) ;
#150 = CARTESIAN_POINT ( 'NONE',  ( 0.0000000000000000000, 5.539607112548648709E-17, -1.622343248388477210 ) ) ;
#151 = FACE_OUTER_BOUND ( 'NONE', #102, .T. ) ;
#152 = APPROVAL_DATE_TIME ( #125, #216 ) ;
#153 = EDGE_CURVE ( 'NONE', #176, #33, #34, .T. ) ;
#154 = ORIENTED_EDGE ( 'NONE', *, *, #139, .F. ) ;
#155 = EDGE_CURVE ( 'NONE', #193, #15, #85, .T. ) ;
#156 = ORIENTED_EDGE ( 'NONE', *, *, #277, .T. ) ;
#157 = PERSON ( 'UNSPECIFIED', 'UNSPECIFIED', 'UNSPECIFIED', ('UNSPECIFIED'), ('UNSPECIFIED'), ('UNSPECIFIED') ) ;
#158 = AXIS2_PLACEMENT_3D ( 'NONE', #28, #287, #188 ) ;
#159 = VERTEX_POINT ( 'NONE', #258 ) ;
#160 = CC_DESIGN_PERSON_AND_ORGANIZATION_ASSIGNMENT ( #137, #14, ( #87 ) ) ;
#161 = DIRECTION ( 'NONE',  ( 0.0000000000000000000, 1.000000000000000000, 1.365923996832131609E-16 ) ) ;
#162 = AXIS2_PLACEMENT_3D ( 'NONE', #97, #119, #2 ) ;
#163 = DIRECTION ( 'NONE',  ( 1.000000000000000000, 0.0000000000000000000, -0.0000000000000000000 ) ) ;
#164 = ORIENTED_EDGE ( 'NONE', *, *, #50, .F. ) ;
#165 = DIRECTION ( 'NONE',  ( 1.000000000000000000, 0.0000000000000000000, 0.0000000000000000000 ) ) ;
#166 = CARTESIAN_POINT ( 'NONE',  ( 0.0000000000000000000, 12.69999999999999929, 1.800000000000001821 ) ) ;
#167 = ORIENTED_EDGE ( 'NONE', *, *, #297, .F. ) ;
#168 = SPHERICAL_SURFACE ( 'NONE', #196, 209.0000000000000000 ) ;
#169 = APPLICATION_CONTEXT ( 'configuration controlled 3d designs of mechanical parts and assemblies' ) ;
#170 = CARTESIAN_POINT ( 'NONE',  ( 1.555301434917138433E-15, -12.69999999999999929, -2.000000000000001776 ) ) ;
#171 = CC_DESIGN_DATE_AND_TIME_ASSIGNMENT ( #256, #213, ( #82 ) ) ;
#172 = CIRCLE ( 'NONE', #96, 12.69999999999999929 ) ;
#173 = PERSON_AND_ORGANIZATION_ROLE ( 'design_supplier' ) ;
#174 = FACE_OUTER_BOUND ( 'NONE', #83, .T. ) ;
#175 = APPROVAL_DATE_TIME ( #130, #1 ) ;
#176 = VERTEX_POINT ( 'NONE', #185 ) ;
#177 = VERTEX_POINT ( 'NONE', #72 ) ;
#178 = ORIENTED_EDGE ( 'NONE', *, *, #139, .T. ) ;
#179 = CALENDAR_DATE ( 2020, 17, 1 ) ;
#180 = PRODUCT_DEFINITION_SHAPE ( 'NONE', 'NONE',  #82 ) ;
#181 = CC_DESIGN_PERSON_AND_ORGANIZATION_ASSIGNMENT ( #300, #173, ( #87 ) ) ;
#182 = DIRECTION ( 'NONE',  ( -0.0000000000000000000, 1.224646799147353207E-16, -1.000000000000000000 ) ) ;
#183 = PERSON_AND_ORGANIZATION ( #157, #251 ) ;
#184 = CARTESIAN_POINT ( 'NONE',  ( 0.0000000000000000000, 3.807695000077666575E-17, -1.480921892151167985 ) ) ;
#185 = CARTESIAN_POINT ( 'NONE',  ( 1.543054966925664878E-15, -12.49999999999999645, 1.999999999999997335 ) ) ;
#186 = CLOSED_SHELL ( 'NONE', ( #71, #191, #187, #120, #212, #68, #214, #148, #124 ) ) ;
#187 = ADVANCED_FACE ( 'NONE', ( #298 ), #118, .T. ) ;
#188 = DIRECTION ( 'NONE',  ( 0.0000000000000000000, 1.000000000000000000, 1.208642382658147351E-16 ) ) ;
#189 = PERSON_AND_ORGANIZATION ( #157, #251 ) ;
#190 = PERSON_AND_ORGANIZATION_ROLE ( 'design_owner' ) ;
#191 = ADVANCED_FACE ( 'NONE', ( #56 ), #21, .T. ) ;
#192 = APPROVAL_STATUS ( 'not_yet_approved' ) ;
#193 = VERTEX_POINT ( 'NONE', #245 ) ;
#194 = EDGE_LOOP ( 'NONE', ( #134, #224, #178, #290 ) ) ;
#195 = FACE_OUTER_BOUND ( 'NONE', #279, .T. ) ;
#196 = AXIS2_PLACEMENT_3D ( 'NONE', #247, #243, #267 ) ;
#197 = LOCAL_TIME ( 15, 17, 30.00000000000000000, #296 ) ;
#198 = ORIENTED_EDGE ( 'NONE', *, *, #242, .T. ) ;
#199 = LINE ( 'NONE', #170, #136 ) ;
#200 = CALENDAR_DATE ( 2020, 17, 1 ) ;
#201 = LINE ( 'NONE', #127, #295 ) ;
#202 = PERSON_AND_ORGANIZATION ( #157, #251 ) ;
#203 = CARTESIAN_POINT ( 'NONE',  ( 0.0000000000000000000, -3.637200993467638614E-16, 1.800000000000000488 ) ) ;
#204 = SECURITY_CLASSIFICATION ( '', '', #225 ) ;
#205 = PERSON_AND_ORGANIZATION ( #157, #251 ) ;
#206 = CARTESIAN_POINT ( 'NONE',  ( 1.537982313792428661E-15, 12.55857864376269006, -1.622343248388475656 ) ) ;
#207 = DIRECTION ( 'NONE',  ( 0.0000000000000000000, 1.000000000000000000, 1.195183497228115281E-16 ) ) ;
#208 = DIRECTION ( 'NONE',  ( 0.0000000000000000000, 1.000000000000000000, 1.328017972039660961E-16 ) ) ;
#209 = LOCAL_TIME ( 15, 17, 30.00000000000000000, #244 ) ;
#210 = AXIS2_PLACEMENT_3D ( 'NONE', #128, #147, #288 ) ;
#211 = CARTESIAN_POINT ( 'NONE',  ( 0.0000000000000000000, -3.882130353297108220E-16, 1.999999999999999112 ) ) ;
#212 = ADVANCED_FACE ( 'NONE', ( #174 ), #168, .T. ) ;
#213 = DATE_TIME_ROLE ( 'creation_date' ) ;
#214 = ADVANCED_FACE ( 'NONE', ( #237 ), #227, .T. ) ;
#215 = DESIGN_CONTEXT ( 'detailed design', #169, 'design' ) ;
#216 = APPROVAL ( #265, 'UNSPECIFIED' ) ;
#217 =( NAMED_UNIT ( * ) SI_UNIT ( $, .STERADIAN. ) SOLID_ANGLE_UNIT ( ) );
#218 = ORIENTED_EDGE ( 'NONE', *, *, #88, .T. ) ;
#219 = ORIENTED_EDGE ( 'NONE', *, *, #116, .T. ) ;
#220 = APPROVAL_ROLE ( '' ) ;
#221 = EDGE_CURVE ( 'NONE', #15, #193, #110, .T. ) ;
#222 =( NAMED_UNIT ( * ) PLANE_ANGLE_UNIT ( ) SI_UNIT ( $, .RADIAN. ) );
#223 = DATE_TIME_ROLE ( 'classification_date' ) ;
#224 = ORIENTED_EDGE ( 'NONE', *, *, #100, .T. ) ;
#225 = SECURITY_CLASSIFICATION_LEVEL ( 'unclassified' ) ;
#226 = VERTEX_POINT ( 'NONE', #166 ) ;
#227 = CYLINDRICAL_SURFACE ( 'NONE', #24, 12.69999999999999929 ) ;
#228 = CARTESIAN_POINT ( 'NONE',  ( 0.0000000000000000000, 12.55857864376290145, -1.622343248388475212 ) ) ;
#229 = FACE_OUTER_BOUND ( 'NONE', #64, .T. ) ;
#230 = DIRECTION ( 'NONE',  ( -0.0000000000000000000, 1.224646799147353947E-16, -1.000000000000000000 ) ) ;
#231 = AXIS2_PLACEMENT_3D ( 'NONE', #282, #117, #140 ) ;
#232 = PRODUCT ( 'TTN206027-E0W', 'TTN206027-E0W', '', ( #29 ) ) ;
#233 = CARTESIAN_POINT ( 'NONE',  ( 0.0000000000000000000, 5.539607112548648709E-17, -1.622343248388477210 ) ) ;
#234 = CARTESIAN_POINT ( 'NONE',  ( 0.0000000000000000000, 12.69999999999999929, -1.999999999999998224 ) ) ;
#235 = CIRCLE ( 'NONE', #252, 209.0000000000000000 ) ;
#236 = CC_DESIGN_PERSON_AND_ORGANIZATION_ASSIGNMENT ( #183, #75, ( #82 ) ) ;
#237 = FACE_OUTER_BOUND ( 'NONE', #194, .T. ) ;
#238 = CARTESIAN_POINT ( 'NONE',  ( 0.0000000000000000000, -3.637200993467638614E-16, 1.800000000000000488 ) ) ;
#239 = PERSON_AND_ORGANIZATION ( #157, #251 ) ;
#240 = DIRECTION ( 'NONE',  ( -0.0000000000000000000, 1.224646799147353207E-16, -1.000000000000000000 ) ) ;
#241 = CC_DESIGN_PERSON_AND_ORGANIZATION_ASSIGNMENT ( #205, #104, ( #204 ) ) ;
#242 = EDGE_CURVE ( 'NONE', #248, #226, #264, .T. ) ;
#243 = DIRECTION ( 'NONE',  ( 1.000000000000000000, 0.0000000000000000000, -0.0000000000000000000 ) ) ;
#244 = COORDINATED_UNIVERSAL_TIME_OFFSET ( 5, 0, .BEHIND. ) ;
#245 = CARTESIAN_POINT ( 'NONE',  ( 1.537982313792454890E-15, -12.55857864376291566, -1.622343248388476766 ) ) ;
#246 = ADVANCED_BREP_SHAPE_REPRESENTATION ( 'TTN206027-E0W', ( #273, #30 ), #42 ) ;
#247 = CARTESIAN_POINT ( 'NONE',  ( 0.0000000000000000000, -3.804610210911081720E-14, 207.0000000000000000 ) ) ;
#248 = VERTEX_POINT ( 'NONE', #26 ) ;
#249 = ORIENTED_EDGE ( 'NONE', *, *, #43, .F. ) ;
#250 = CC_DESIGN_SECURITY_CLASSIFICATION ( #204, ( #87 ) ) ;
#251 = ORGANIZATION ( 'UNSPECIFIED', 'UNSPECIFIED', '' ) ;
#252 = AXIS2_PLACEMENT_3D ( 'NONE', #115, #66, #70 ) ;
#253 = LINE ( 'NONE', #206, #129 ) ;
#254 = DATE_AND_TIME ( #67, #209 ) ;
#255 = ORIENTED_EDGE ( 'NONE', *, *, #50, .T. ) ;
#256 = DATE_AND_TIME ( #200, #98 ) ;
#257 = AXIS2_PLACEMENT_3D ( 'NONE', #238, #6, #47 ) ;
#258 = CARTESIAN_POINT ( 'NONE',  ( 0.0000000000000000000, 12.69999999999999929, -1.480921892151166430 ) ) ;
#259 = ORIENTED_EDGE ( 'NONE', *, *, #269, .F. ) ;
#260 = ORIENTED_EDGE ( 'NONE', *, *, #221, .F. ) ;
#261 = DIRECTION ( 'NONE',  ( 0.0000000000000000000, 1.000000000000000000, 1.195183497228115281E-16 ) ) ;
#262 = APPROVAL_PERSON_ORGANIZATION ( #202, #1, #105 ) ;
#263 = VERTEX_POINT ( 'NONE', #74 ) ;
#264 = LINE ( 'NONE', #126, #44 ) ;
#265 = APPROVAL_STATUS ( 'not_yet_approved' ) ;
#266 = APPROVAL_DATE_TIME ( #52, #292 ) ;
#267 = DIRECTION ( 'NONE',  ( 0.0000000000000000000, 1.000000000000000000, 1.328017972039660961E-16 ) ) ;
#268 = CARTESIAN_POINT ( 'NONE',  ( 0.0000000000000000000, 1.016456843292303500E-16, -2.000000000000000000 ) ) ;
#269 = EDGE_CURVE ( 'NONE', #176, #248, #278, .T. ) ;
#270 = ORIENTED_EDGE ( 'NONE', *, *, #221, .T. ) ;
#271 = DIRECTION ( 'NONE',  ( 0.0000000000000000000, -1.224646799147353207E-16, 1.000000000000000000 ) ) ;
#272 = CC_DESIGN_APPROVAL ( #216, ( #87 ) ) ;
#273 = MANIFOLD_SOLID_BREP ( 'TTN206043-1-solid1', #186 ) ;
#274 = AXIS2_PLACEMENT_3D ( 'NONE', #63, #163, #208 ) ;
#275 = CONICAL_SURFACE ( 'NONE', #113, 12.69999999999999929, 0.7853981633974569387 ) ;
#276 = FACE_OUTER_BOUND ( 'NONE', #78, .T. ) ;
#277 = EDGE_CURVE ( 'NONE', #33, #263, #199, .T. ) ;
#278 = CIRCLE ( 'NONE', #210, 12.49999999999999645 ) ;
#279 = EDGE_LOOP ( 'NONE', ( #259, #31, #84, #76 ) ) ;
#280 = DIRECTION ( 'NONE',  ( 0.0000000000000000000, -1.224646799147353207E-16, 1.000000000000000000 ) ) ;
#281 = CARTESIAN_POINT ( 'NONE',  ( 0.0000000000000000000, 3.807695000077666575E-17, -1.480921892151167985 ) ) ;
#282 = CARTESIAN_POINT ( 'NONE',  ( 0.0000000000000000000, -3.637200993467638614E-16, 1.800000000000000488 ) ) ;
#283 = UNCERTAINTY_MEASURE_WITH_UNIT (LENGTH_MEASURE( 1.000000000000000082E-05 ), #293, 'distance_accuracy_value', 'NONE');
#284 = DIRECTION ( 'NONE',  ( 0.0000000000000000000, -1.000000000000000000, -1.224646799147353207E-16 ) ) ;
#285 = FACE_OUTER_BOUND ( 'NONE', #107, .T. ) ;
#286 = PERSON_AND_ORGANIZATION ( #157, #251 ) ;
#287 = DIRECTION ( 'NONE',  ( -0.0000000000000000000, 1.224646799147353207E-16, -1.000000000000000000 ) ) ;
#288 = DIRECTION ( 'NONE',  ( 0.0000000000000000000, -1.000000000000000000, -1.387778780781446169E-16 ) ) ;
#289 = AXIS2_PLACEMENT_3D ( 'NONE', #233, #5, #93 ) ;
#290 = ORIENTED_EDGE ( 'NONE', *, *, #108, .F. ) ;
#291 = DIRECTION ( 'NONE',  ( 0.0000000000000000000, -0.7071067811865487940, 0.7071067811865463515 ) ) ;
#292 = APPROVAL ( #192, 'UNSPECIFIED' ) ;
#293 =( LENGTH_UNIT ( ) NAMED_UNIT ( * ) SI_UNIT ( .MILLI., .METRE. ) );
#294 = AXIS2_PLACEMENT_3D ( 'NONE', #203, #230, #261 ) ;
#295 = VECTOR ( 'NONE', #291, 1000.000000000000000 ) ;
#296 = COORDINATED_UNIVERSAL_TIME_OFFSET ( 5, 0, .BEHIND. ) ;
#297 = EDGE_CURVE ( 'NONE', #193, #263, #201, .T. ) ;
#298 = FACE_OUTER_BOUND ( 'NONE', #141, .T. ) ;
#299 = CIRCLE ( 'NONE', #131, 12.49999999999999645 ) ;
#300 = PERSON_AND_ORGANIZATION ( #157, #251 ) ;
#301 = DIRECTION ( 'NONE',  ( 8.659560562354947649E-17, 0.7071067811865485719, 0.7071067811865465735 ) ) ;
ENDSEC;
END-ISO-10303-21;
