ISO-10303-21;
HEADER;
FILE_DESCRIPTION (( 'STEP AP203' ),
    '1' );
FILE_NAME ('Web Model 83359_83366.step',
    '2017-04-26T17:35:09',
    ( '' ),
    ( '' ),
    'SwSTEP 2.0',
    'SolidWorks 2016',
    '' );
FILE_SCHEMA (( 'CONFIG_CONTROL_DESIGN' ));
ENDSEC;

DATA;
#1 = DIRECTION ( 'NONE',  ( 1.000000000000000000, 0.0000000000000000000, 0.0000000000000000000 ) ) ;
#2 = CC_DESIGN_PERSON_AND_ORGANIZATION_ASSIGNMENT ( #148, #125, ( #69 ) ) ;
#3 = CALENDAR_DATE ( 2017, 26, 4 ) ;
#4 = ADVANCED_FACE ( 'NONE', ( #159 ), #124, .T. ) ;
#5 = CARTESIAN_POINT ( 'NONE',  ( 0.0000000000000000000, 0.0000000000000000000, 1.100000000000000100 ) ) ;
#6 = CARTESIAN_POINT ( 'NONE',  ( -25.00000000000000000, 0.0000000000000000000, 1.100000000000000100 ) ) ;
#7 = EDGE_CURVE ( 'NONE', #97, #133, #145, .T. ) ;
#8 = DATE_AND_TIME ( #57, #16 ) ;
#9 = EDGE_CURVE ( 'NONE', #167, #133, #56, .T. ) ;
#10 = LINE ( 'NONE', #70, #157 ) ;
#11 = ORGANIZATION ( 'UNSPECIFIED', 'UNSPECIFIED', '' ) ;
#12 = FACE_OUTER_BOUND ( 'NONE', #150, .T. ) ;
#13 = AXIS2_PLACEMENT_3D ( 'NONE', #77, #123, #93 ) ;
#14 = COORDINATED_UNIVERSAL_TIME_OFFSET ( 5, 0, .BEHIND. ) ;
#15 = PRODUCT_DEFINITION_SHAPE ( 'NONE', 'NONE',  #82 ) ;
#16 = LOCAL_TIME ( 13, 35, 9.000000000000000000, #154 ) ;
#17 = APPROVAL_ROLE ( '' ) ;
#18 = ADVANCED_FACE ( 'NONE', ( #12 ), #143, .F. ) ;
#19 = EDGE_CURVE ( 'NONE', #133, #167, #72, .T. ) ;
#20 = DESIGN_CONTEXT ( 'detailed design', #33, 'design' ) ;
#21 = PERSON_AND_ORGANIZATION ( #39, #11 ) ;
#22 = PRODUCT_RELATED_PRODUCT_CATEGORY ( 'detail', '', ( #152 ) ) ;
#23 = FACE_OUTER_BOUND ( 'NONE', #84, .T. ) ;
#24 = EDGE_CURVE ( 'NONE', #97, #94, #62, .T. ) ;
#25 = PERSON_AND_ORGANIZATION_ROLE ( 'creator' ) ;
#26 = ORIENTED_EDGE ( 'NONE', *, *, #116, .F. ) ;
#27 = CC_DESIGN_APPROVAL ( #127, ( #69 ) ) ;
#28 = APPROVAL_ROLE ( '' ) ;
#29 = APPROVAL ( #54, 'UNSPECIFIED' ) ;
#30 = APPROVAL_STATUS ( 'not_yet_approved' ) ;
#31 = COORDINATED_UNIVERSAL_TIME_OFFSET ( 5, 0, .BEHIND. ) ;
#32 = APPLICATION_PROTOCOL_DEFINITION ( 'international standard', 'config_control_design', 1994, #33 ) ;
#33 = APPLICATION_CONTEXT ( 'configuration controlled 3d designs of mechanical parts and assemblies' ) ;
#34 = CC_DESIGN_PERSON_AND_ORGANIZATION_ASSIGNMENT ( #21, #40, ( #152 ) ) ;
#35 = CARTESIAN_POINT ( 'NONE',  ( -25.00000000000000000, 0.0000000000000000000, 0.0000000000000000000 ) ) ;
#36 = APPROVAL_ROLE ( '' ) ;
#37 = APPROVAL_DATE_TIME ( #174, #127 ) ;
#38 = APPROVAL_DATE_TIME ( #115, #117 ) ;
#39 = PERSON ( 'UNSPECIFIED', 'UNSPECIFIED', 'UNSPECIFIED', ('UNSPECIFIED'), ('UNSPECIFIED'), ('UNSPECIFIED') ) ;
#40 = PERSON_AND_ORGANIZATION_ROLE ( 'design_owner' ) ;
#41 = DIRECTION ( 'NONE',  ( -1.000000000000000000, 0.0000000000000000000, 0.0000000000000000000 ) ) ;
#42 = AXIS2_PLACEMENT_3D ( 'NONE', #130, #80, #151 ) ;
#43 = DATE_AND_TIME ( #3, #137 ) ;
#44 =( GEOMETRIC_REPRESENTATION_CONTEXT ( 3 ) GLOBAL_UNCERTAINTY_ASSIGNED_CONTEXT ( ( #141 ) ) GLOBAL_UNIT_ASSIGNED_CONTEXT ( ( #92, #156, #118 ) ) REPRESENTATION_CONTEXT ( 'NONE', 'WORKASPACE' ) );
#45 = MECHANICAL_CONTEXT ( 'NONE', #122, 'mechanical' ) ;
#46 = APPROVAL_DATE_TIME ( #8, #29 ) ;
#47 = DIRECTION ( 'NONE',  ( 1.000000000000000000, 0.0000000000000000000, 0.0000000000000000000 ) ) ;
#48 = DIRECTION ( 'NONE',  ( 0.0000000000000000000, 0.0000000000000000000, 1.000000000000000000 ) ) ;
#49 = AXIS2_PLACEMENT_3D ( 'NONE', #160, #170, #53 ) ;
#50 = SHAPE_DEFINITION_REPRESENTATION ( #15, #165 ) ;
#51 = DIRECTION ( 'NONE',  ( 1.000000000000000000, 0.0000000000000000000, 0.0000000000000000000 ) ) ;
#52 = DATE_AND_TIME ( #89, #161 ) ;
#53 = DIRECTION ( 'NONE',  ( 1.000000000000000000, 0.0000000000000000000, 0.0000000000000000000 ) ) ;
#54 = APPROVAL_STATUS ( 'not_yet_approved' ) ;
#55 = CARTESIAN_POINT ( 'NONE',  ( 25.00000000000000000, 3.061616997868383000E-015, 1.100000000000000100 ) ) ;
#56 = CIRCLE ( 'NONE', #83, 25.00000000000000000 ) ;
#57 = CALENDAR_DATE ( 2017, 26, 4 ) ;
#58 = CC_DESIGN_PERSON_AND_ORGANIZATION_ASSIGNMENT ( #171, #25, ( #82 ) ) ;
#59 = ORIENTED_EDGE ( 'NONE', *, *, #19, .F. ) ;
#60 = MANIFOLD_SOLID_BREP ( 'Boss-Extrude1', #134 ) ;
#61 = AXIS2_PLACEMENT_3D ( 'NONE', #158, #120, #68 ) ;
#62 = CIRCLE ( 'NONE', #132, 25.00000000000000000 ) ;
#63 = CARTESIAN_POINT ( 'NONE',  ( 0.0000000000000000000, 0.0000000000000000000, 0.0000000000000000000 ) ) ;
#64 = CC_DESIGN_APPROVAL ( #117, ( #82 ) ) ;
#65 = AXIS2_PLACEMENT_3D ( 'NONE', #74, #172, #96 ) ;
#66 = PERSON_AND_ORGANIZATION ( #39, #11 ) ;
#67 = PERSON_AND_ORGANIZATION_ROLE ( 'creator' ) ;
#68 = DIRECTION ( 'NONE',  ( 1.000000000000000000, 0.0000000000000000000, 0.0000000000000000000 ) ) ;
#69 = SECURITY_CLASSIFICATION ( '', '', #135 ) ;
#70 = CARTESIAN_POINT ( 'NONE',  ( 25.00000000000000000, 3.061616997868383000E-015, 1.100000000000000100 ) ) ;
#71 = DIRECTION ( 'NONE',  ( 0.0000000000000000000, 0.0000000000000000000, 1.000000000000000000 ) ) ;
#72 = CIRCLE ( 'NONE', #49, 25.00000000000000000 ) ;
#73 = LOCAL_TIME ( 13, 35, 9.000000000000000000, #31 ) ;
#74 = CARTESIAN_POINT ( 'NONE',  ( 0.0000000000000000000, 0.0000000000000000000, 1.100000000000000100 ) ) ;
#75 = ORIENTED_EDGE ( 'NONE', *, *, #9, .T. ) ;
#76 = AXIS2_PLACEMENT_3D ( 'NONE', #91, #48, #47 ) ;
#77 = CARTESIAN_POINT ( 'NONE',  ( 0.0000000000000000000, 0.0000000000000000000, 1.100000000000000100 ) ) ;
#78 = CC_DESIGN_PERSON_AND_ORGANIZATION_ASSIGNMENT ( #110, #168, ( #139 ) ) ;
#79 = PERSON_AND_ORGANIZATION ( #39, #11 ) ;
#80 = DIRECTION ( 'NONE',  ( 0.0000000000000000000, 0.0000000000000000000, 1.000000000000000000 ) ) ;
#81 = FACE_OUTER_BOUND ( 'NONE', #166, .T. ) ;
#82 = PRODUCT_DEFINITION ( 'UNKNOWN', '', #139, #20 ) ;
#83 = AXIS2_PLACEMENT_3D ( 'NONE', #63, #71, #1 ) ;
#84 = EDGE_LOOP ( 'NONE', ( #26, #163, #144, #173 ) ) ;
#85 = PERSON_AND_ORGANIZATION ( #39, #11 ) ;
#86 = CARTESIAN_POINT ( 'NONE',  ( -25.00000000000000000, 0.0000000000000000000, 1.100000000000000100 ) ) ;
#87 = PERSON_AND_ORGANIZATION ( #39, #11 ) ;
#88 = ADVANCED_FACE ( 'NONE', ( #23 ), #111, .T. ) ;
#89 = CALENDAR_DATE ( 2017, 26, 4 ) ;
#90 = COORDINATED_UNIVERSAL_TIME_OFFSET ( 5, 0, .BEHIND. ) ;
#91 = CARTESIAN_POINT ( 'NONE',  ( 0.0000000000000000000, 0.0000000000000000000, 0.0000000000000000000 ) ) ;
#92 =( LENGTH_UNIT ( ) NAMED_UNIT ( * ) SI_UNIT ( .MILLI., .METRE. ) );
#93 = DIRECTION ( 'NONE',  ( 1.000000000000000000, 0.0000000000000000000, -0.0000000000000000000 ) ) ;
#94 = VERTEX_POINT ( 'NONE', #55 ) ;
#95 = CARTESIAN_POINT ( 'NONE',  ( 0.0000000000000000000, 0.0000000000000000000, 1.100000000000000100 ) ) ;
#96 = DIRECTION ( 'NONE',  ( -1.000000000000000000, 0.0000000000000000000, 0.0000000000000000000 ) ) ;
#97 = VERTEX_POINT ( 'NONE', #86 ) ;
#98 = DIRECTION ( 'NONE',  ( -0.0000000000000000000, -0.0000000000000000000, -1.000000000000000000 ) ) ;
#99 = CC_DESIGN_APPROVAL ( #29, ( #139 ) ) ;
#100 = AXIS2_PLACEMENT_3D ( 'NONE', #95, #98, #41 ) ;
#101 = DATE_TIME_ROLE ( 'creation_date' ) ;
#102 = LOCAL_TIME ( 13, 35, 9.000000000000000000, #140 ) ;
#103 = PLANE ( 'NONE',  #13 ) ;
#104 = CIRCLE ( 'NONE', #61, 25.00000000000000000 ) ;
#105 = CC_DESIGN_PERSON_AND_ORGANIZATION_ASSIGNMENT ( #85, #67, ( #139 ) ) ;
#106 = CARTESIAN_POINT ( 'NONE',  ( 25.00000000000000000, 3.061616997868383000E-015, 0.0000000000000000000 ) ) ;
#107 = CC_DESIGN_SECURITY_CLASSIFICATION ( #69, ( #139 ) ) ;
#108 = APPROVAL_PERSON_ORGANIZATION ( #79, #127, #36 ) ;
#109 = DATE_TIME_ROLE ( 'classification_date' ) ;
#110 = PERSON_AND_ORGANIZATION ( #39, #11 ) ;
#111 = CYLINDRICAL_SURFACE ( 'NONE', #100, 25.00000000000000000 ) ;
#112 = VECTOR ( 'NONE', #169, 1000.000000000000000 ) ;
#113 = APPROVAL_PERSON_ORGANIZATION ( #87, #29, #17 ) ;
#114 = CC_DESIGN_DATE_AND_TIME_ASSIGNMENT ( #52, #101, ( #82 ) ) ;
#115 = DATE_AND_TIME ( #162, #73 ) ;
#116 = EDGE_CURVE ( 'NONE', #94, #167, #10, .T. ) ;
#117 = APPROVAL ( #30, 'UNSPECIFIED' ) ;
#118 =( NAMED_UNIT ( * ) SI_UNIT ( $, .STERADIAN. ) SOLID_ANGLE_UNIT ( ) );
#119 = EDGE_CURVE ( 'NONE', #94, #97, #104, .T. ) ;
#120 = DIRECTION ( 'NONE',  ( 0.0000000000000000000, 0.0000000000000000000, 1.000000000000000000 ) ) ;
#121 = APPLICATION_PROTOCOL_DEFINITION ( 'international standard', 'config_control_design', 1994, #122 ) ;
#122 = APPLICATION_CONTEXT ( 'configuration controlled 3d designs of mechanical parts and assemblies' ) ;
#123 = DIRECTION ( 'NONE',  ( 0.0000000000000000000, 0.0000000000000000000, 1.000000000000000000 ) ) ;
#124 = CYLINDRICAL_SURFACE ( 'NONE', #65, 25.00000000000000000 ) ;
#125 = PERSON_AND_ORGANIZATION_ROLE ( 'classification_officer' ) ;
#126 = APPROVAL_PERSON_ORGANIZATION ( #66, #117, #28 ) ;
#127 = APPROVAL ( #136, 'UNSPECIFIED' ) ;
#128 = DIRECTION ( 'NONE',  ( 0.0000000000000000000, 0.0000000000000000000, 1.000000000000000000 ) ) ;
#129 = CALENDAR_DATE ( 2017, 26, 4 ) ;
#130 = CARTESIAN_POINT ( 'NONE',  ( 0.0000000000000000000, 0.0000000000000000000, 0.0000000000000000000 ) ) ;
#131 = ADVANCED_FACE ( 'NONE', ( #81 ), #103, .T. ) ;
#132 = AXIS2_PLACEMENT_3D ( 'NONE', #5, #128, #51 ) ;
#133 = VERTEX_POINT ( 'NONE', #35 ) ;
#134 = CLOSED_SHELL ( 'NONE', ( #4, #88, #131, #18 ) ) ;
#135 = SECURITY_CLASSIFICATION_LEVEL ( 'unclassified' ) ;
#136 = APPROVAL_STATUS ( 'not_yet_approved' ) ;
#137 = LOCAL_TIME ( 13, 35, 9.000000000000000000, #14 ) ;
#138 = ORIENTED_EDGE ( 'NONE', *, *, #24, .T. ) ;
#139 = PRODUCT_DEFINITION_FORMATION_WITH_SPECIFIED_SOURCE ( 'ANY', '', #152, .NOT_KNOWN. ) ;
#140 = COORDINATED_UNIVERSAL_TIME_OFFSET ( 5, 0, .BEHIND. ) ;
#141 = UNCERTAINTY_MEASURE_WITH_UNIT (LENGTH_MEASURE( 1.000000000000000100E-005 ), #92, 'distance_accuracy_value', 'NONE');
#142 = ORIENTED_EDGE ( 'NONE', *, *, #119, .T. ) ;
#143 = PLANE ( 'NONE',  #42 ) ;
#144 = ORIENTED_EDGE ( 'NONE', *, *, #7, .T. ) ;
#145 = LINE ( 'NONE', #6, #112 ) ;
#146 = CC_DESIGN_DATE_AND_TIME_ASSIGNMENT ( #43, #109, ( #69 ) ) ;
#147 = DIRECTION ( 'NONE',  ( -0.0000000000000000000, -0.0000000000000000000, -1.000000000000000000 ) ) ;
#148 = PERSON_AND_ORGANIZATION ( #39, #11 ) ;
#149 = ORIENTED_EDGE ( 'NONE', *, *, #9, .F. ) ;
#150 = EDGE_LOOP ( 'NONE', ( #59, #149 ) ) ;
#151 = DIRECTION ( 'NONE',  ( 1.000000000000000000, 0.0000000000000000000, -0.0000000000000000000 ) ) ;
#152 = PRODUCT ( 'Web Model 83359_83366', 'Web Model 83359_83366', '', ( #45 ) ) ;
#153 = ORIENTED_EDGE ( 'NONE', *, *, #7, .F. ) ;
#154 = COORDINATED_UNIVERSAL_TIME_OFFSET ( 5, 0, .BEHIND. ) ;
#155 = ORIENTED_EDGE ( 'NONE', *, *, #119, .F. ) ;
#156 =( NAMED_UNIT ( * ) PLANE_ANGLE_UNIT ( ) SI_UNIT ( $, .RADIAN. ) );
#157 = VECTOR ( 'NONE', #147, 1000.000000000000000 ) ;
#158 = CARTESIAN_POINT ( 'NONE',  ( 0.0000000000000000000, 0.0000000000000000000, 1.100000000000000100 ) ) ;
#159 = FACE_OUTER_BOUND ( 'NONE', #175, .T. ) ;
#160 = CARTESIAN_POINT ( 'NONE',  ( 0.0000000000000000000, 0.0000000000000000000, 0.0000000000000000000 ) ) ;
#161 = LOCAL_TIME ( 13, 35, 9.000000000000000000, #90 ) ;
#162 = CALENDAR_DATE ( 2017, 26, 4 ) ;
#163 = ORIENTED_EDGE ( 'NONE', *, *, #24, .F. ) ;
#164 = ORIENTED_EDGE ( 'NONE', *, *, #116, .T. ) ;
#165 = ADVANCED_BREP_SHAPE_REPRESENTATION ( 'Web Model 83359_83366', ( #60, #76 ), #44 ) ;
#166 = EDGE_LOOP ( 'NONE', ( #138, #142 ) ) ;
#167 = VERTEX_POINT ( 'NONE', #106 ) ;
#168 = PERSON_AND_ORGANIZATION_ROLE ( 'design_supplier' ) ;
#169 = DIRECTION ( 'NONE',  ( -0.0000000000000000000, -0.0000000000000000000, -1.000000000000000000 ) ) ;
#170 = DIRECTION ( 'NONE',  ( 0.0000000000000000000, 0.0000000000000000000, 1.000000000000000000 ) ) ;
#171 = PERSON_AND_ORGANIZATION ( #39, #11 ) ;
#172 = DIRECTION ( 'NONE',  ( -0.0000000000000000000, -0.0000000000000000000, -1.000000000000000000 ) ) ;
#173 = ORIENTED_EDGE ( 'NONE', *, *, #19, .T. ) ;
#174 = DATE_AND_TIME ( #129, #102 ) ;
#175 = EDGE_LOOP ( 'NONE', ( #155, #164, #75, #153 ) ) ;
ENDSEC;
END-ISO-10303-21;
