ISO-10303-21;
HEADER;
FILE_DESCRIPTION (( 'STEP AP203' ),
    '1' );
FILE_NAME ('Web Model Lightsmyth Gratings_16867.step',
    '2021-03-11T20:25:29',
    ( '' ),
    ( '' ),
    'SwSTEP 2.0',
    'SolidWorks 2018',
    '' );
FILE_SCHEMA (( 'CONFIG_CONTROL_DESIGN' ));
ENDSEC;

DATA;
#1 = VECTOR ( 'NONE', #108, 1000.000000000000000 ) ;
#2 = VERTEX_POINT ( 'NONE', #82 ) ;
#3 = EDGE_CURVE ( 'NONE', #79, #60, #225, .T. ) ;
#4 = APPROVAL_PERSON_ORGANIZATION ( #129, #75, #182 ) ;
#5 = VECTOR ( 'NONE', #72, 1000.000000000000000 ) ;
#6 = APPROVAL ( #88, 'UNSPECIFIED' ) ;
#7 = PERSON_AND_ORGANIZATION ( #23, #58 ) ;
#8 = EDGE_CURVE ( 'NONE', #2, #40, #73, .T. ) ;
#9 = PERSON_AND_ORGANIZATION ( #23, #58 ) ;
#10 = ORIENTED_EDGE ( 'NONE', *, *, #20, .F. ) ;
#11 = CARTESIAN_POINT ( 'NONE',  ( 65.00000000000001421, 7.499999999999996447, 0.0000000000000000000 ) ) ;
#12 = ADVANCED_FACE ( 'NONE', ( #15 ), #140, .F. ) ;
#13 = EDGE_CURVE ( 'NONE', #40, #41, #130, .T. ) ;
#14 = PRODUCT_DEFINITION_SHAPE ( 'NONE', 'NONE',  #233 ) ;
#15 = FACE_OUTER_BOUND ( 'NONE', #176, .T. ) ;
#16 = PERSON_AND_ORGANIZATION_ROLE ( 'creator' ) ;
#17 = CARTESIAN_POINT ( 'NONE',  ( 65.00000000000001421, -7.500000000000003553, 0.9499999999999999556 ) ) ;
#18 = DIRECTION ( 'NONE',  ( -1.000000000000000000, 0.0000000000000000000, -0.0000000000000000000 ) ) ;
#19 = CARTESIAN_POINT ( 'NONE',  ( -64.99999999999998579, -7.500000000000003553, 0.9499999999999999556 ) ) ;
#20 = EDGE_CURVE ( 'NONE', #118, #78, #158, .T. ) ;
#21 = LOCAL_TIME ( 15, 25, 29.00000000000000000, #85 ) ;
#22 = LINE ( 'NONE', #134, #198 ) ;
#23 = PERSON ( 'UNSPECIFIED', 'UNSPECIFIED', 'UNSPECIFIED', ('UNSPECIFIED'), ('UNSPECIFIED'), ('UNSPECIFIED') ) ;
#24 = CC_DESIGN_PERSON_AND_ORGANIZATION_ASSIGNMENT ( #42, #74, ( #233 ) ) ;
#25 = CALENDAR_DATE ( 2021, 11, 3 ) ;
#26 = CARTESIAN_POINT ( 'NONE',  ( 65.00000000000001421, -7.500000000000003553, 0.0000000000000000000 ) ) ;
#27 = AXIS2_PLACEMENT_3D ( 'NONE', #159, #173, #61 ) ;
#28 = FACE_OUTER_BOUND ( 'NONE', #236, .T. ) ;
#29 = ORIENTED_EDGE ( 'NONE', *, *, #3, .T. ) ;
#30 = CARTESIAN_POINT ( 'NONE',  ( -64.99999999999998579, -7.500000000000003553, 0.9499999999999999556 ) ) ;
#31 = CARTESIAN_POINT ( 'NONE',  ( 65.00000000000001421, -7.500000000000003553, 0.9499999999999999556 ) ) ;
#32 = FACE_OUTER_BOUND ( 'NONE', #237, .T. ) ;
#33 = PERSON_AND_ORGANIZATION_ROLE ( 'classification_officer' ) ;
#34 = ADVANCED_FACE ( 'NONE', ( #49 ), #180, .F. ) ;
#35 = APPLICATION_PROTOCOL_DEFINITION ( 'international standard', 'config_control_design', 1994, #36 ) ;
#36 = APPLICATION_CONTEXT ( 'configuration controlled 3d designs of mechanical parts and assemblies' ) ;
#37 = CC_DESIGN_DATE_AND_TIME_ASSIGNMENT ( #55, #234, ( #233 ) ) ;
#38 = COORDINATED_UNIVERSAL_TIME_OFFSET ( 5, 0, .BEHIND. ) ;
#39 = ORIENTED_EDGE ( 'NONE', *, *, #8, .T. ) ;
#40 = VERTEX_POINT ( 'NONE', #192 ) ;
#41 = VERTEX_POINT ( 'NONE', #177 ) ;
#42 = PERSON_AND_ORGANIZATION ( #23, #58 ) ;
#43 = DIRECTION ( 'NONE',  ( 0.0000000000000000000, -0.0000000000000000000, 1.000000000000000000 ) ) ;
#44 = CC_DESIGN_APPROVAL ( #6, ( #81 ) ) ;
#45 = DIRECTION ( 'NONE',  ( -0.0000000000000000000, -0.0000000000000000000, -1.000000000000000000 ) ) ;
#46 = AXIS2_PLACEMENT_3D ( 'NONE', #68, #126, #145 ) ;
#47 = ADVANCED_FACE ( 'NONE', ( #191 ), #200, .F. ) ;
#48 = APPROVAL_STATUS ( 'not_yet_approved' ) ;
#49 = FACE_OUTER_BOUND ( 'NONE', #50, .T. ) ;
#50 = EDGE_LOOP ( 'NONE', ( #29, #188, #96, #227 ) ) ;
#51 = DIRECTION ( 'NONE',  ( -1.000000000000000000, 0.0000000000000000000, 0.0000000000000000000 ) ) ;
#52 = AXIS2_PLACEMENT_3D ( 'NONE', #70, #54, #132 ) ;
#53 = DIRECTION ( 'NONE',  ( 0.0000000000000000000, -0.0000000000000000000, -1.000000000000000000 ) ) ;
#54 = DIRECTION ( 'NONE',  ( 0.0000000000000000000, 0.0000000000000000000, 1.000000000000000000 ) ) ;
#55 = DATE_AND_TIME ( #186, #21 ) ;
#56 =( NAMED_UNIT ( * ) PLANE_ANGLE_UNIT ( ) SI_UNIT ( $, .RADIAN. ) );
#57 = VECTOR ( 'NONE', #196, 1000.000000000000000 ) ;
#58 = ORGANIZATION ( 'UNSPECIFIED', 'UNSPECIFIED', '' ) ;
#59 = VERTEX_POINT ( 'NONE', #30 ) ;
#60 = VERTEX_POINT ( 'NONE', #65 ) ;
#61 = DIRECTION ( 'NONE',  ( -1.000000000000000000, 0.0000000000000000000, -0.0000000000000000000 ) ) ;
#62 = ORIENTED_EDGE ( 'NONE', *, *, #112, .F. ) ;
#63 = LINE ( 'NONE', #149, #5 ) ;
#64 = EDGE_CURVE ( 'NONE', #78, #79, #125, .T. ) ;
#65 = CARTESIAN_POINT ( 'NONE',  ( -64.99999999999998579, -7.500000000000003553, 0.0000000000000000000 ) ) ;
#66 = ADVANCED_BREP_SHAPE_REPRESENTATION ( 'Web Model Lightsmyth Gratings_16867', ( #97, #52 ), #84 ) ;
#67 = CARTESIAN_POINT ( 'NONE',  ( -64.99999999999998579, 7.499999999999996447, 0.0000000000000000000 ) ) ;
#68 = CARTESIAN_POINT ( 'NONE',  ( -64.99999999999998579, -7.500000000000003553, 0.9499999999999999556 ) ) ;
#69 = AXIS2_PLACEMENT_3D ( 'NONE', #113, #111, #53 ) ;
#70 = CARTESIAN_POINT ( 'NONE',  ( 0.0000000000000000000, 0.0000000000000000000, 0.0000000000000000000 ) ) ;
#71 = DATE_TIME_ROLE ( 'classification_date' ) ;
#72 = DIRECTION ( 'NONE',  ( -0.0000000000000000000, -0.0000000000000000000, -1.000000000000000000 ) ) ;
#73 = LINE ( 'NONE', #123, #57 ) ;
#74 = PERSON_AND_ORGANIZATION_ROLE ( 'creator' ) ;
#75 = APPROVAL ( #48, 'UNSPECIFIED' ) ;
#76 = LINE ( 'NONE', #220, #211 ) ;
#77 = ORIENTED_EDGE ( 'NONE', *, *, #218, .F. ) ;
#78 = VERTEX_POINT ( 'NONE', #11 ) ;
#79 = VERTEX_POINT ( 'NONE', #83 ) ;
#80 = DIRECTION ( 'NONE',  ( 0.0000000000000000000, 1.000000000000000000, 0.0000000000000000000 ) ) ;
#81 = PRODUCT_DEFINITION_FORMATION_WITH_SPECIFIED_SOURCE ( 'ANY', '', #178, .NOT_KNOWN. ) ;
#82 = CARTESIAN_POINT ( 'NONE',  ( 65.00000000000001421, -7.500000000000003553, 0.9499999999999999556 ) ) ;
#83 = CARTESIAN_POINT ( 'NONE',  ( -64.99999999999998579, 7.499999999999996447, 0.0000000000000000000 ) ) ;
#84 =( GEOMETRIC_REPRESENTATION_CONTEXT ( 3 ) GLOBAL_UNCERTAINTY_ASSIGNED_CONTEXT ( ( #222 ) ) GLOBAL_UNIT_ASSIGNED_CONTEXT ( ( #206, #56, #131 ) ) REPRESENTATION_CONTEXT ( 'NONE', 'WORKASPACE' ) );
#85 = COORDINATED_UNIVERSAL_TIME_OFFSET ( 5, 0, .BEHIND. ) ;
#86 = PERSON_AND_ORGANIZATION ( #23, #58 ) ;
#87 = CARTESIAN_POINT ( 'NONE',  ( 65.00000000000001421, -7.500000000000003553, 0.0000000000000000000 ) ) ;
#88 = APPROVAL_STATUS ( 'not_yet_approved' ) ;
#89 = DATE_AND_TIME ( #25, #137 ) ;
#90 = EDGE_LOOP ( 'NONE', ( #179, #103, #142, #187 ) ) ;
#91 = PLANE ( 'NONE',  #117 ) ;
#92 = PERSON_AND_ORGANIZATION_ROLE ( 'design_owner' ) ;
#93 = PLANE ( 'NONE',  #69 ) ;
#94 = VECTOR ( 'NONE', #143, 1000.000000000000000 ) ;
#95 = EDGE_LOOP ( 'NONE', ( #190, #62, #77, #136 ) ) ;
#96 = ORIENTED_EDGE ( 'NONE', *, *, #135, .F. ) ;
#97 = MANIFOLD_SOLID_BREP ( 'Boss-Extrude1', #212 ) ;
#98 = LINE ( 'NONE', #165, #1 ) ;
#99 = CC_DESIGN_DATE_AND_TIME_ASSIGNMENT ( #89, #71, ( #109 ) ) ;
#100 = AXIS2_PLACEMENT_3D ( 'NONE', #228, #231, #43 ) ;
#101 = CARTESIAN_POINT ( 'NONE',  ( -64.99999999999998579, -7.500000000000003553, 0.0000000000000000000 ) ) ;
#102 = CALENDAR_DATE ( 2021, 11, 3 ) ;
#103 = ORIENTED_EDGE ( 'NONE', *, *, #161, .F. ) ;
#104 = CC_DESIGN_PERSON_AND_ORGANIZATION_ASSIGNMENT ( #147, #16, ( #81 ) ) ;
#105 = APPROVAL_DATE_TIME ( #214, #6 ) ;
#106 = LINE ( 'NONE', #229, #175 ) ;
#107 = EDGE_CURVE ( 'NONE', #40, #78, #106, .T. ) ;
#108 = DIRECTION ( 'NONE',  ( 1.000000000000000000, 0.0000000000000000000, 0.0000000000000000000 ) ) ;
#109 = SECURITY_CLASSIFICATION ( '', '', #204 ) ;
#110 = SHAPE_DEFINITION_REPRESENTATION ( #14, #66 ) ;
#111 = DIRECTION ( 'NONE',  ( 0.0000000000000000000, -1.000000000000000000, 0.0000000000000000000 ) ) ;
#112 = EDGE_CURVE ( 'NONE', #2, #118, #172, .T. ) ;
#113 = CARTESIAN_POINT ( 'NONE',  ( -64.99999999999998579, 7.499999999999996447, 0.9499999999999999556 ) ) ;
#114 = CALENDAR_DATE ( 2021, 11, 3 ) ;
#115 = APPLICATION_CONTEXT ( 'configuration controlled 3d designs of mechanical parts and assemblies' ) ;
#116 = LINE ( 'NONE', #19, #151 ) ;
#117 = AXIS2_PLACEMENT_3D ( 'NONE', #209, #221, #18 ) ;
#118 = VERTEX_POINT ( 'NONE', #87 ) ;
#119 = CC_DESIGN_APPROVAL ( #75, ( #109 ) ) ;
#120 = CARTESIAN_POINT ( 'NONE',  ( -64.99999999999998579, 7.499999999999996447, 0.9499999999999999556 ) ) ;
#121 = VECTOR ( 'NONE', #197, 1000.000000000000000 ) ;
#122 = ORIENTED_EDGE ( 'NONE', *, *, #3, .F. ) ;
#123 = CARTESIAN_POINT ( 'NONE',  ( 65.00000000000001421, -7.500000000000003553, 0.9499999999999999556 ) ) ;
#124 = EDGE_CURVE ( 'NONE', #59, #60, #63, .T. ) ;
#125 = LINE ( 'NONE', #67, #163 ) ;
#126 = DIRECTION ( 'NONE',  ( 1.000000000000000000, 0.0000000000000000000, 0.0000000000000000000 ) ) ;
#127 = CC_DESIGN_PERSON_AND_ORGANIZATION_ASSIGNMENT ( #86, #92, ( #178 ) ) ;
#128 = ADVANCED_FACE ( 'NONE', ( #32 ), #202, .F. ) ;
#129 = PERSON_AND_ORGANIZATION ( #23, #58 ) ;
#130 = LINE ( 'NONE', #120, #94 ) ;
#131 =( NAMED_UNIT ( * ) SI_UNIT ( $, .STERADIAN. ) SOLID_ANGLE_UNIT ( ) );
#132 = DIRECTION ( 'NONE',  ( 1.000000000000000000, 0.0000000000000000000, 0.0000000000000000000 ) ) ;
#133 = DIRECTION ( 'NONE',  ( -0.0000000000000000000, -1.000000000000000000, -0.0000000000000000000 ) ) ;
#134 = CARTESIAN_POINT ( 'NONE',  ( -64.99999999999998579, -7.500000000000003553, 0.9499999999999999556 ) ) ;
#135 = EDGE_CURVE ( 'NONE', #41, #59, #22, .T. ) ;
#136 = ORIENTED_EDGE ( 'NONE', *, *, #124, .T. ) ;
#137 = LOCAL_TIME ( 15, 25, 29.00000000000000000, #189 ) ;
#138 = ORIENTED_EDGE ( 'NONE', *, *, #8, .F. ) ;
#139 = PERSON_AND_ORGANIZATION ( #23, #58 ) ;
#140 = PLANE ( 'NONE',  #27 ) ;
#141 = APPROVAL ( #184, 'UNSPECIFIED' ) ;
#142 = ORIENTED_EDGE ( 'NONE', *, *, #13, .F. ) ;
#143 = DIRECTION ( 'NONE',  ( -1.000000000000000000, -0.0000000000000000000, -0.0000000000000000000 ) ) ;
#144 = DIRECTION ( 'NONE',  ( -0.0000000000000000000, -1.000000000000000000, -0.0000000000000000000 ) ) ;
#145 = DIRECTION ( 'NONE',  ( 0.0000000000000000000, 0.0000000000000000000, -1.000000000000000000 ) ) ;
#146 = PRODUCT_RELATED_PRODUCT_CATEGORY ( 'detail', '', ( #178 ) ) ;
#147 = PERSON_AND_ORGANIZATION ( #23, #58 ) ;
#148 = FACE_OUTER_BOUND ( 'NONE', #90, .T. ) ;
#149 = CARTESIAN_POINT ( 'NONE',  ( -64.99999999999998579, -7.500000000000003553, 0.9499999999999999556 ) ) ;
#150 = PERSON_AND_ORGANIZATION_ROLE ( 'design_supplier' ) ;
#151 = VECTOR ( 'NONE', #154, 1000.000000000000000 ) ;
#152 = ORIENTED_EDGE ( 'NONE', *, *, #135, .T. ) ;
#153 = DESIGN_CONTEXT ( 'detailed design', #115, 'design' ) ;
#154 = DIRECTION ( 'NONE',  ( 1.000000000000000000, 0.0000000000000000000, 0.0000000000000000000 ) ) ;
#155 = DIRECTION ( 'NONE',  ( 0.0000000000000000000, 0.0000000000000000000, 1.000000000000000000 ) ) ;
#156 = LOCAL_TIME ( 15, 25, 29.00000000000000000, #38 ) ;
#157 = CALENDAR_DATE ( 2021, 11, 3 ) ;
#158 = LINE ( 'NONE', #26, #230 ) ;
#159 = CARTESIAN_POINT ( 'NONE',  ( 0.0000000000000000000, 0.0000000000000000000, 0.9499999999999999556 ) ) ;
#160 = ORIENTED_EDGE ( 'NONE', *, *, #210, .F. ) ;
#161 = EDGE_CURVE ( 'NONE', #41, #79, #76, .T. ) ;
#162 = PERSON_AND_ORGANIZATION ( #23, #58 ) ;
#163 = VECTOR ( 'NONE', #199, 1000.000000000000000 ) ;
#164 = DIRECTION ( 'NONE',  ( -0.0000000000000000000, -0.0000000000000000000, -1.000000000000000000 ) ) ;
#165 = CARTESIAN_POINT ( 'NONE',  ( -64.99999999999998579, -7.500000000000003553, 0.0000000000000000000 ) ) ;
#166 = MECHANICAL_CONTEXT ( 'NONE', #36, 'mechanical' ) ;
#167 = APPROVAL_DATE_TIME ( #223, #141 ) ;
#168 = ADVANCED_FACE ( 'NONE', ( #28 ), #91, .T. ) ;
#169 = CC_DESIGN_PERSON_AND_ORGANIZATION_ASSIGNMENT ( #139, #150, ( #81 ) ) ;
#170 = APPLICATION_PROTOCOL_DEFINITION ( 'international standard', 'config_control_design', 1994, #115 ) ;
#171 = LOCAL_TIME ( 15, 25, 29.00000000000000000, #217 ) ;
#172 = LINE ( 'NONE', #31, #121 ) ;
#173 = DIRECTION ( 'NONE',  ( 0.0000000000000000000, 0.0000000000000000000, -1.000000000000000000 ) ) ;
#174 = APPROVAL_DATE_TIME ( #183, #75 ) ;
#175 = VECTOR ( 'NONE', #45, 1000.000000000000000 ) ;
#176 = EDGE_LOOP ( 'NONE', ( #39, #216, #152, #208 ) ) ;
#177 = CARTESIAN_POINT ( 'NONE',  ( -64.99999999999998579, 7.499999999999996447, 0.9499999999999999556 ) ) ;
#178 = PRODUCT ( 'Web Model Lightsmyth Gratings_16867', 'Web Model Lightsmyth Gratings_16867', '', ( #166 ) ) ;
#179 = ORIENTED_EDGE ( 'NONE', *, *, #64, .T. ) ;
#180 = PLANE ( 'NONE',  #46 ) ;
#181 = ADVANCED_FACE ( 'NONE', ( #148 ), #93, .F. ) ;
#182 = APPROVAL_ROLE ( '' ) ;
#183 = DATE_AND_TIME ( #114, #171 ) ;
#184 = APPROVAL_STATUS ( 'not_yet_approved' ) ;
#185 = APPROVAL_ROLE ( '' ) ;
#186 = CALENDAR_DATE ( 2021, 11, 3 ) ;
#187 = ORIENTED_EDGE ( 'NONE', *, *, #107, .T. ) ;
#188 = ORIENTED_EDGE ( 'NONE', *, *, #124, .F. ) ;
#189 = COORDINATED_UNIVERSAL_TIME_OFFSET ( 5, 0, .BEHIND. ) ;
#190 = ORIENTED_EDGE ( 'NONE', *, *, #210, .T. ) ;
#191 = FACE_OUTER_BOUND ( 'NONE', #95, .T. ) ;
#192 = CARTESIAN_POINT ( 'NONE',  ( 65.00000000000001421, 7.499999999999996447, 0.9499999999999999556 ) ) ;
#193 = CC_DESIGN_PERSON_AND_ORGANIZATION_ASSIGNMENT ( #162, #33, ( #109 ) ) ;
#194 = VECTOR ( 'NONE', #144, 1000.000000000000000 ) ;
#195 = ORIENTED_EDGE ( 'NONE', *, *, #20, .T. ) ;
#196 = DIRECTION ( 'NONE',  ( 0.0000000000000000000, 1.000000000000000000, 0.0000000000000000000 ) ) ;
#197 = DIRECTION ( 'NONE',  ( -0.0000000000000000000, -0.0000000000000000000, -1.000000000000000000 ) ) ;
#198 = VECTOR ( 'NONE', #133, 1000.000000000000000 ) ;
#199 = DIRECTION ( 'NONE',  ( -1.000000000000000000, -0.0000000000000000000, -0.0000000000000000000 ) ) ;
#200 = PLANE ( 'NONE',  #100 ) ;
#201 = APPROVAL_PERSON_ORGANIZATION ( #7, #141, #185 ) ;
#202 = PLANE ( 'NONE',  #215 ) ;
#203 = ORIENTED_EDGE ( 'NONE', *, *, #64, .F. ) ;
#204 = SECURITY_CLASSIFICATION_LEVEL ( 'unclassified' ) ;
#205 = APPROVAL_ROLE ( '' ) ;
#206 =( LENGTH_UNIT ( ) NAMED_UNIT ( * ) SI_UNIT ( .MILLI., .METRE. ) );
#207 = APPROVAL_PERSON_ORGANIZATION ( #9, #6, #205 ) ;
#208 = ORIENTED_EDGE ( 'NONE', *, *, #218, .T. ) ;
#209 = CARTESIAN_POINT ( 'NONE',  ( 0.0000000000000000000, 0.0000000000000000000, 0.0000000000000000000 ) ) ;
#210 = EDGE_CURVE ( 'NONE', #60, #118, #98, .T. ) ;
#211 = VECTOR ( 'NONE', #164, 1000.000000000000000 ) ;
#212 = CLOSED_SHELL ( 'NONE', ( #128, #181, #34, #47, #12, #168 ) ) ;
#213 = CC_DESIGN_SECURITY_CLASSIFICATION ( #109, ( #81 ) ) ;
#214 = DATE_AND_TIME ( #157, #235 ) ;
#215 = AXIS2_PLACEMENT_3D ( 'NONE', #17, #51, #155 ) ;
#216 = ORIENTED_EDGE ( 'NONE', *, *, #13, .T. ) ;
#217 = COORDINATED_UNIVERSAL_TIME_OFFSET ( 5, 0, .BEHIND. ) ;
#218 = EDGE_CURVE ( 'NONE', #59, #2, #116, .T. ) ;
#219 = ORIENTED_EDGE ( 'NONE', *, *, #107, .F. ) ;
#220 = CARTESIAN_POINT ( 'NONE',  ( -64.99999999999998579, 7.499999999999996447, 0.9499999999999999556 ) ) ;
#221 = DIRECTION ( 'NONE',  ( 0.0000000000000000000, 0.0000000000000000000, -1.000000000000000000 ) ) ;
#222 = UNCERTAINTY_MEASURE_WITH_UNIT (LENGTH_MEASURE( 1.000000000000000082E-05 ), #206, 'distance_accuracy_value', 'NONE');
#223 = DATE_AND_TIME ( #102, #156 ) ;
#224 = COORDINATED_UNIVERSAL_TIME_OFFSET ( 5, 0, .BEHIND. ) ;
#225 = LINE ( 'NONE', #101, #194 ) ;
#226 = CC_DESIGN_APPROVAL ( #141, ( #233 ) ) ;
#227 = ORIENTED_EDGE ( 'NONE', *, *, #161, .T. ) ;
#228 = CARTESIAN_POINT ( 'NONE',  ( -64.99999999999998579, -7.500000000000003553, 0.9499999999999999556 ) ) ;
#229 = CARTESIAN_POINT ( 'NONE',  ( 65.00000000000001421, 7.499999999999996447, 0.9499999999999999556 ) ) ;
#230 = VECTOR ( 'NONE', #80, 1000.000000000000000 ) ;
#231 = DIRECTION ( 'NONE',  ( 0.0000000000000000000, 1.000000000000000000, 0.0000000000000000000 ) ) ;
#232 = ORIENTED_EDGE ( 'NONE', *, *, #112, .T. ) ;
#233 = PRODUCT_DEFINITION ( 'UNKNOWN', '', #81, #153 ) ;
#234 = DATE_TIME_ROLE ( 'creation_date' ) ;
#235 = LOCAL_TIME ( 15, 25, 29.00000000000000000, #224 ) ;
#236 = EDGE_LOOP ( 'NONE', ( #10, #160, #122, #203 ) ) ;
#237 = EDGE_LOOP ( 'NONE', ( #195, #219, #138, #232 ) ) ;
ENDSEC;
END-ISO-10303-21;
