ISO-10303-21;
HEADER;
FILE_DESCRIPTION (( 'STEP AP203' ),
    '1' );
FILE_NAME ('4328-E0W.STEP',
    '2015-06-17T20:46:35',
    ( 'admin' ),
    ( '' ),
    'SwSTEP 2.0',
    'SolidWorks 2014',
    '' );
FILE_SCHEMA (( 'CONFIG_CONTROL_DESIGN' ));
ENDSEC;

DATA;
#1 = EDGE_CURVE ( 'NONE', #226, #154, #42, .T. ) ;
#2 = CARTESIAN_POINT ( 'NONE',  ( 0.0000000000000000000, 0.0000000000000000000, 0.7745368856813539300 ) ) ;
#3 = ORIENTED_EDGE ( 'NONE', *, *, #1, .T. ) ;
#4 = PERSON_AND_ORGANIZATION ( #289, #120 ) ;
#5 = APPROVAL_ROLE ( '' ) ;
#6 = DATE_AND_TIME ( #176, #52 ) ;
#7 = CARTESIAN_POINT ( 'NONE',  ( 0.0000000000000000000, 0.0000000000000000000, 1.031373719157069300 ) ) ;
#8 = PRODUCT_DEFINITION ( 'UNKNOWN', '', #301, #312 ) ;
#9 = CIRCLE ( 'NONE', #277, 12.69999999999999900 ) ;
#10 = PRODUCT_DEFINITION_SHAPE ( 'NONE', 'NONE',  #8 ) ;
#11 = CARTESIAN_POINT ( 'NONE',  ( 0.0000000000000000000, 0.0000000000000000000, -1.031373719157069300 ) ) ;
#12 = DIRECTION ( 'NONE',  ( -1.000000000000000000, 0.0000000000000000000, 0.0000000000000000000 ) ) ;
#13 = DIRECTION ( 'NONE',  ( 1.000000000000000000, 0.0000000000000000000, 0.0000000000000000000 ) ) ;
#14 = EDGE_LOOP ( 'NONE', ( #309, #257, #112, #201 ) ) ;
#15 = AXIS2_PLACEMENT_3D ( 'NONE', #115, #195, #81 ) ;
#16 = AXIS2_PLACEMENT_3D ( 'NONE', #164, #49, #243 ) ;
#17 = CARTESIAN_POINT ( 'NONE',  ( -12.69999999999999900, 1.555301434917138400E-015, -0.7745368856813539300 ) ) ;
#18 = DIRECTION ( 'NONE',  ( 1.000000000000000000, 0.0000000000000000000, 0.0000000000000000000 ) ) ;
#19 = SPHERICAL_SURFACE ( 'NONE', #117, 459.6999999999999900 ) ;
#20 = DIRECTION ( 'NONE',  ( -1.000000000000000000, 0.0000000000000000000, 0.0000000000000000000 ) ) ;
#21 = VERTEX_POINT ( 'NONE', #355 ) ;
#22 = DIRECTION ( 'NONE',  ( -1.000000000000000000, 1.224646799147353200E-016, 0.0000000000000000000 ) ) ;
#23 = APPLICATION_PROTOCOL_DEFINITION ( 'international standard', 'config_control_design', 1994, #363 ) ;
#24 = DIRECTION ( 'NONE',  ( -0.0000000000000000000, -0.0000000000000000000, 1.000000000000000000 ) ) ;
#25 = CALENDAR_DATE ( 2015, 17, 6 ) ;
#26 = VECTOR ( 'NONE', #270, 1000.000000000000000 ) ;
#27 = CARTESIAN_POINT ( 'NONE',  ( 0.0000000000000000000, 0.0000000000000000000, 1.031373719157069300 ) ) ;
#28 = CARTESIAN_POINT ( 'NONE',  ( 0.0000000000000000000, 0.0000000000000000000, 1.031373719157069300 ) ) ;
#29 = CIRCLE ( 'NONE', #337, 12.69999999999999900 ) ;
#30 = CIRCLE ( 'NONE', #15, 12.45016336376357400 ) ;
#31 = EDGE_CURVE ( 'NONE', #263, #154, #118, .T. ) ;
#32 = CARTESIAN_POINT ( 'NONE',  ( 0.0000000000000000000, 0.0000000000000000000, -458.5000000000000000 ) ) ;
#33 = CC_DESIGN_PERSON_AND_ORGANIZATION_ASSIGNMENT ( #288, #362, ( #301 ) ) ;
#34 = CIRCLE ( 'NONE', #197, 12.69999999999999900 ) ;
#35 = ORIENTED_EDGE ( 'NONE', *, *, #229, .T. ) ;
#36 = ADVANCED_FACE ( 'NONE', ( #279 ), #329, .T. ) ;
#37 = CIRCLE ( 'NONE', #143, 459.6999999999999900 ) ;
#38 = DIRECTION ( 'NONE',  ( 0.0000000000000000000, 0.0000000000000000000, -1.000000000000000000 ) ) ;
#39 = CC_DESIGN_PERSON_AND_ORGANIZATION_ASSIGNMENT ( #4, #280, ( #301 ) ) ;
#40 = AXIS2_PLACEMENT_3D ( 'NONE', #213, #135, #47 ) ;
#41 = DIRECTION ( 'NONE',  ( 0.0000000000000000000, 0.0000000000000000000, -1.000000000000000000 ) ) ;
#42 = LINE ( 'NONE', #157, #26 ) ;
#43 = CARTESIAN_POINT ( 'NONE',  ( 12.69999999999999900, 0.0000000000000000000, -0.7745368856813539300 ) ) ;
#44 = SECURITY_CLASSIFICATION ( '', '', #346 ) ;
#45 = CARTESIAN_POINT ( 'NONE',  ( 0.0000000000000000000, 0.0000000000000000000, -0.7745368856813539300 ) ) ;
#46 = FACE_OUTER_BOUND ( 'NONE', #314, .T. ) ;
#47 = DIRECTION ( 'NONE',  ( -1.000000000000000000, 0.0000000000000000000, 0.0000000000000000000 ) ) ;
#48 = CARTESIAN_POINT ( 'NONE',  ( 12.69999999999999900, 0.0000000000000000000, 0.7745368856813539300 ) ) ;
#49 = DIRECTION ( 'NONE',  ( 0.0000000000000000000, 0.0000000000000000000, -1.000000000000000000 ) ) ;
#50 = PRODUCT ( '4328-E0W', '4328-E0W', '', ( #74 ) ) ;
#51 = DIRECTION ( 'NONE',  ( 0.0000000000000000000, 0.0000000000000000000, -1.000000000000000000 ) ) ;
#52 = LOCAL_TIME ( 16, 46, 35.00000000000000000, #330 ) ;
#53 = AXIS2_PLACEMENT_3D ( 'NONE', #45, #24, #79 ) ;
#54 = CARTESIAN_POINT ( 'NONE',  ( -1.524705271229439700E-015, -12.45016336376332200, 1.031373719157097100 ) ) ;
#55 = APPROVAL_PERSON_ORGANIZATION ( #345, #77, #305 ) ;
#56 = FACE_OUTER_BOUND ( 'NONE', #64, .T. ) ;
#57 = DIRECTION ( 'NONE',  ( -1.000000000000000000, 0.0000000000000000000, 0.0000000000000000000 ) ) ;
#58 = DIRECTION ( 'NONE',  ( -0.0000000000000000000, -0.0000000000000000000, 1.000000000000000000 ) ) ;
#59 = DIRECTION ( 'NONE',  ( -0.0000000000000000000, -0.0000000000000000000, 1.000000000000000000 ) ) ;
#60 = CIRCLE ( 'NONE', #105, 12.45016336376355200 ) ;
#61 = CC_DESIGN_PERSON_AND_ORGANIZATION_ASSIGNMENT ( #102, #172, ( #44 ) ) ;
#62 = APPROVAL_DATE_TIME ( #142, #77 ) ;
#63 = CARTESIAN_POINT ( 'NONE',  ( 0.0000000000000000000, 0.0000000000000000000, -458.5000000000000000 ) ) ;
#64 = EDGE_LOOP ( 'NONE', ( #202, #298, #194, #106 ) ) ;
#65 = CIRCLE ( 'NONE', #83, 459.6999999999999900 ) ;
#66 = ORIENTED_EDGE ( 'NONE', *, *, #286, .T. ) ;
#67 = PERSON_AND_ORGANIZATION ( #289, #120 ) ;
#68 = ADVANCED_FACE ( 'NONE', ( #139 ), #340, .T. ) ;
#69 = CC_DESIGN_DATE_AND_TIME_ASSIGNMENT ( #193, #171, ( #44 ) ) ;
#70 = EDGE_CURVE ( 'NONE', #140, #147, #285, .T. ) ;
#71 = ORIENTED_EDGE ( 'NONE', *, *, #294, .F. ) ;
#72 = APPROVAL_PERSON_ORGANIZATION ( #198, #364, #5 ) ;
#73 = CARTESIAN_POINT ( 'NONE',  ( 12.45016336376357400, 1.540003353073304000E-015, 1.031373719157069300 ) ) ;
#74 = MECHANICAL_CONTEXT ( 'NONE', #336, 'mechanical' ) ;
#75 = AXIS2_PLACEMENT_3D ( 'NONE', #246, #205, #254 ) ;
#76 = ORIENTED_EDGE ( 'NONE', *, *, #189, .T. ) ;
#77 = APPROVAL ( #335, 'UNSPECIFIED' ) ;
#78 = AXIS2_PLACEMENT_3D ( 'NONE', #152, #221, #242 ) ;
#79 = DIRECTION ( 'NONE',  ( 1.000000000000000000, 0.0000000000000000000, 0.0000000000000000000 ) ) ;
#80 = ORIENTED_EDGE ( 'NONE', *, *, #31, .F. ) ;
#81 = DIRECTION ( 'NONE',  ( -1.000000000000000000, 0.0000000000000000000, 0.0000000000000000000 ) ) ;
#82 = DIRECTION ( 'NONE',  ( -1.000000000000000000, 0.0000000000000000000, 0.0000000000000000000 ) ) ;
#83 = AXIS2_PLACEMENT_3D ( 'NONE', #32, #271, #38 ) ;
#84 = FACE_OUTER_BOUND ( 'NONE', #273, .T. ) ;
#85 =( NAMED_UNIT ( * ) SI_UNIT ( $, .STERADIAN. ) SOLID_ANGLE_UNIT ( ) );
#86 = CC_DESIGN_APPROVAL ( #77, ( #44 ) ) ;
#87 = DIRECTION ( 'NONE',  ( -0.0000000000000000000, -0.0000000000000000000, 1.000000000000000000 ) ) ;
#88 = DIRECTION ( 'NONE',  ( 0.0000000000000000000, 0.0000000000000000000, 1.000000000000000000 ) ) ;
#89 = AXIS2_PLACEMENT_3D ( 'NONE', #354, #269, #20 ) ;
#90 = CARTESIAN_POINT ( 'NONE',  ( 0.0000000000000000000, 0.0000000000000000000, -1.031373719157069300 ) ) ;
#91 = LINE ( 'NONE', #104, #366 ) ;
#92 = AXIS2_PLACEMENT_3D ( 'NONE', #7, #58, #249 ) ;
#93 = CIRCLE ( 'NONE', #227, 12.45016336376355200 ) ;
#94 = ORIENTED_EDGE ( 'NONE', *, *, #116, .T. ) ;
#95 = CC_DESIGN_APPROVAL ( #364, ( #8 ) ) ;
#96 = MANIFOLD_SOLID_BREP ( '4328-001-1-solid1', #210 ) ;
#97 = CIRCLE ( 'NONE', #282, 459.6999999999999900 ) ;
#98 = DIRECTION ( 'NONE',  ( -1.224646799147353200E-016, -1.000000000000000000, 0.0000000000000000000 ) ) ;
#99 = ADVANCED_FACE ( 'NONE', ( #220 ), #215, .T. ) ;
#100 = VECTOR ( 'NONE', #162, 1000.000000000000000 ) ;
#101 = FACE_OUTER_BOUND ( 'NONE', #318, .T. ) ;
#102 = PERSON_AND_ORGANIZATION ( #289, #120 ) ;
#103 = ORIENTED_EDGE ( 'NONE', *, *, #290, .T. ) ;
#104 = CARTESIAN_POINT ( 'NONE',  ( -12.69999999999999900, 1.555301434917138400E-015, 1.200000000000000000 ) ) ;
#105 = AXIS2_PLACEMENT_3D ( 'NONE', #141, #260, #113 ) ;
#106 = ORIENTED_EDGE ( 'NONE', *, *, #361, .F. ) ;
#107 = CIRCLE ( 'NONE', #89, 12.45016336376357400 ) ;
#108 = CIRCLE ( 'NONE', #92, 12.45016336376357400 ) ;
#109 = CC_DESIGN_SECURITY_CLASSIFICATION ( #44, ( #301 ) ) ;
#110 = AXIS2_PLACEMENT_3D ( 'NONE', #28, #51, #343 ) ;
#111 = SPHERICAL_SURFACE ( 'NONE', #239, 459.6999999999999900 ) ;
#112 = ORIENTED_EDGE ( 'NONE', *, *, #252, .T. ) ;
#113 = DIRECTION ( 'NONE',  ( 1.000000000000000000, 0.0000000000000000000, 0.0000000000000000000 ) ) ;
#114 = AXIS2_PLACEMENT_3D ( 'NONE', #180, #262, #209 ) ;
#115 = CARTESIAN_POINT ( 'NONE',  ( 0.0000000000000000000, 0.0000000000000000000, 1.031373719157069300 ) ) ;
#116 = EDGE_CURVE ( 'NONE', #360, #226, #30, .T. ) ;
#117 = AXIS2_PLACEMENT_3D ( 'NONE', #206, #82, #322 ) ;
#118 = CIRCLE ( 'NONE', #40, 12.69999999999999900 ) ;
#119 = ORIENTED_EDGE ( 'NONE', *, *, #272, .T. ) ;
#120 = ORGANIZATION ( 'UNSPECIFIED', 'UNSPECIFIED', '' ) ;
#121 = VERTEX_POINT ( 'NONE', #151 ) ;
#122 = EDGE_CURVE ( 'NONE', #317, #121, #208, .T. ) ;
#123 = LINE ( 'NONE', #43, #265 ) ;
#124 = DIRECTION ( 'NONE',  ( -1.000000000000000000, 0.0000000000000000000, 0.0000000000000000000 ) ) ;
#125 = VERTEX_POINT ( 'NONE', #168 ) ;
#126 = CARTESIAN_POINT ( 'NONE',  ( 0.0000000000000000000, 0.0000000000000000000, -0.7745368856813537000 ) ) ;
#127 = CARTESIAN_POINT ( 'NONE',  ( 0.0000000000000000000, 0.0000000000000000000, 458.5000000000000000 ) ) ;
#128 = ORIENTED_EDGE ( 'NONE', *, *, #349, .F. ) ;
#129 = VECTOR ( 'NONE', #232, 1000.000000000000000 ) ;
#130 = PRODUCT_RELATED_PRODUCT_CATEGORY ( 'detail', '', ( #50 ) ) ;
#131 = DIRECTION ( 'NONE',  ( -1.000000000000000000, 1.224646799147353200E-016, 0.0000000000000000000 ) ) ;
#132 = CARTESIAN_POINT ( 'NONE',  ( 0.0000000000000000000, 12.45016336376332200, 1.031373719157097100 ) ) ;
#133 = CONICAL_SURFACE ( 'NONE', #233, 12.69999999999999900, 0.7715830491165561700 ) ;
#134 = ORIENTED_EDGE ( 'NONE', *, *, #166, .T. ) ;
#135 = DIRECTION ( 'NONE',  ( 0.0000000000000000000, 0.0000000000000000000, -1.000000000000000000 ) ) ;
#136 = APPROVAL_ROLE ( '' ) ;
#137 = LINE ( 'NONE', #367, #347 ) ;
#138 = ORIENTED_EDGE ( 'NONE', *, *, #286, .F. ) ;
#139 = FACE_OUTER_BOUND ( 'NONE', #333, .T. ) ;
#140 = VERTEX_POINT ( 'NONE', #191 ) ;
#141 = CARTESIAN_POINT ( 'NONE',  ( 0.0000000000000000000, 0.0000000000000000000, -1.031373719157069300 ) ) ;
#142 = DATE_AND_TIME ( #25, #300 ) ;
#143 = AXIS2_PLACEMENT_3D ( 'NONE', #234, #131, #98 ) ;
#144 = ORIENTED_EDGE ( 'NONE', *, *, #272, .F. ) ;
#145 = ADVANCED_FACE ( 'NONE', ( #56 ), #240, .T. ) ;
#146 = AXIS2_PLACEMENT_3D ( 'NONE', #278, #153, #247 ) ;
#147 = VERTEX_POINT ( 'NONE', #256 ) ;
#148 = APPROVAL_PERSON_ORGANIZATION ( #67, #287, #136 ) ;
#149 =( GEOMETRIC_REPRESENTATION_CONTEXT ( 3 ) GLOBAL_UNCERTAINTY_ASSIGNED_CONTEXT ( ( #159 ) ) GLOBAL_UNIT_ASSIGNED_CONTEXT ( ( #192, #304, #85 ) ) REPRESENTATION_CONTEXT ( 'NONE', 'WORKASPACE' ) );
#150 = COORDINATED_UNIVERSAL_TIME_OFFSET ( 5, 0, .BEHIND. ) ;
#151 = CARTESIAN_POINT ( 'NONE',  ( -1.524705271229438100E-015, -12.45016336376331100, -1.031373719157097100 ) ) ;
#152 = CARTESIAN_POINT ( 'NONE',  ( 0.0000000000000000000, 0.0000000000000000000, -1.031373719157069300 ) ) ;
#153 = DIRECTION ( 'NONE',  ( -1.000000000000000000, 0.0000000000000000000, 0.0000000000000000000 ) ) ;
#154 = VERTEX_POINT ( 'NONE', #48 ) ;
#155 = AXIS2_PLACEMENT_3D ( 'NONE', #11, #204, #18 ) ;
#156 = ORIENTED_EDGE ( 'NONE', *, *, #189, .F. ) ;
#157 = CARTESIAN_POINT ( 'NONE',  ( 12.45016336376358300, 1.524705271229471400E-015, 1.031373719157069300 ) ) ;
#158 = DIRECTION ( 'NONE',  ( 0.0000000000000000000, 1.000000000000000000, 0.0000000000000000000 ) ) ;
#159 = UNCERTAINTY_MEASURE_WITH_UNIT (LENGTH_MEASURE( 1.000000000000000100E-005 ), #192, 'distance_accuracy_value', 'NONE');
#160 = EDGE_LOOP ( 'NONE', ( #217, #94, #207, #251 ) ) ;
#161 = DIRECTION ( 'NONE',  ( -0.0000000000000000000, -0.0000000000000000000, 1.000000000000000000 ) ) ;
#162 = DIRECTION ( 'NONE',  ( -0.6972708537312064500, 8.539105191606643600E-017, 0.7168077542388576800 ) ) ;
#163 = ORIENTED_EDGE ( 'NONE', *, *, #166, .F. ) ;
#164 = CARTESIAN_POINT ( 'NONE',  ( 0.0000000000000000000, 0.0000000000000000000, 1.031373719157069300 ) ) ;
#165 = LOCAL_TIME ( 16, 46, 35.00000000000000000, #306 ) ;
#166 = EDGE_CURVE ( 'NONE', #21, #263, #341, .T. ) ;
#167 = CALENDAR_DATE ( 2015, 17, 6 ) ;
#168 = CARTESIAN_POINT ( 'NONE',  ( 12.69999999999999900, 0.0000000000000000000, -0.7745368856813537000 ) ) ;
#169 = DIRECTION ( 'NONE',  ( 0.0000000000000000000, 1.000000000000000000, 0.0000000000000000000 ) ) ;
#170 = AXIS2_PLACEMENT_3D ( 'NONE', #27, #231, #124 ) ;
#171 = DATE_TIME_ROLE ( 'classification_date' ) ;
#172 = PERSON_AND_ORGANIZATION_ROLE ( 'classification_officer' ) ;
#173 = ADVANCED_FACE ( 'NONE', ( #46 ), #200, .T. ) ;
#174 = FACE_OUTER_BOUND ( 'NONE', #14, .T. ) ;
#175 = ORIENTED_EDGE ( 'NONE', *, *, #70, .F. ) ;
#176 = CALENDAR_DATE ( 2015, 17, 6 ) ;
#177 = AXIS2_PLACEMENT_3D ( 'NONE', #338, #332, #223 ) ;
#178 = CARTESIAN_POINT ( 'NONE',  ( -12.69999999999999900, 1.555301434917138400E-015, 0.7745368856813539300 ) ) ;
#179 = AXIS2_PLACEMENT_3D ( 'NONE', #268, #57, #158 ) ;
#180 = CARTESIAN_POINT ( 'NONE',  ( 0.0000000000000000000, 0.0000000000000000000, 1.200000000000000000 ) ) ;
#181 = PERSON_AND_ORGANIZATION_ROLE ( 'design_owner' ) ;
#182 = ORIENTED_EDGE ( 'NONE', *, *, #122, .F. ) ;
#183 = VERTEX_POINT ( 'NONE', #132 ) ;
#184 = CARTESIAN_POINT ( 'NONE',  ( 0.0000000000000000000, 0.0000000000000000000, -0.7745368856813539300 ) ) ;
#185 = SHAPE_DEFINITION_REPRESENTATION ( #10, #274 ) ;
#186 = ORIENTED_EDGE ( 'NONE', *, *, #70, .T. ) ;
#187 = CARTESIAN_POINT ( 'NONE',  ( 0.0000000000000000000, 2.814850667840191200E-014, 1.199999999999978900 ) ) ;
#188 = DATE_TIME_ROLE ( 'creation_date' ) ;
#189 = EDGE_CURVE ( 'NONE', #21, #360, #264, .T. ) ;
#190 = VERTEX_POINT ( 'NONE', #187 ) ;
#191 = CARTESIAN_POINT ( 'NONE',  ( -12.45016336376355200, 1.540003353073303100E-015, -1.031373719157069300 ) ) ;
#192 =( LENGTH_UNIT ( ) NAMED_UNIT ( * ) SI_UNIT ( .MILLI., .METRE. ) );
#193 = DATE_AND_TIME ( #307, #224 ) ;
#194 = ORIENTED_EDGE ( 'NONE', *, *, #31, .T. ) ;
#195 = DIRECTION ( 'NONE',  ( -0.0000000000000000000, -0.0000000000000000000, 1.000000000000000000 ) ) ;
#196 = CIRCLE ( 'NONE', #155, 12.45016336376355200 ) ;
#197 = AXIS2_PLACEMENT_3D ( 'NONE', #2, #199, #12 ) ;
#198 = PERSON_AND_ORGANIZATION ( #289, #120 ) ;
#199 = DIRECTION ( 'NONE',  ( 0.0000000000000000000, 0.0000000000000000000, -1.000000000000000000 ) ) ;
#200 = CONICAL_SURFACE ( 'NONE', #110, 12.45016336376358300, 0.7715830491165145400 ) ;
#201 = ORIENTED_EDGE ( 'NONE', *, *, #267, .T. ) ;
#202 = ORIENTED_EDGE ( 'NONE', *, *, #349, .T. ) ;
#203 = ADVANCED_FACE ( 'NONE', ( #174 ), #320, .T. ) ;
#204 = DIRECTION ( 'NONE',  ( 0.0000000000000000000, 0.0000000000000000000, -1.000000000000000000 ) ) ;
#205 = DIRECTION ( 'NONE',  ( -0.0000000000000000000, -0.0000000000000000000, 1.000000000000000000 ) ) ;
#206 = CARTESIAN_POINT ( 'NONE',  ( 0.0000000000000000000, 0.0000000000000000000, 458.5000000000000000 ) ) ;
#207 = ORIENTED_EDGE ( 'NONE', *, *, #259, .T. ) ;
#208 = CIRCLE ( 'NONE', #78, 12.45016336376355200 ) ;
#209 = DIRECTION ( 'NONE',  ( 1.000000000000000000, 0.0000000000000000000, 0.0000000000000000000 ) ) ;
#210 = CLOSED_SHELL ( 'NONE', ( #36, #284, #203, #145, #235, #334, #68, #308, #99, #173 ) ) ;
#211 = APPROVAL_DATE_TIME ( #6, #364 ) ;
#212 = EDGE_CURVE ( 'NONE', #360, #190, #37, .T. ) ;
#213 = CARTESIAN_POINT ( 'NONE',  ( 0.0000000000000000000, 0.0000000000000000000, 0.7745368856813539300 ) ) ;
#214 = ORIENTED_EDGE ( 'NONE', *, *, #236, .F. ) ;
#215 = CONICAL_SURFACE ( 'NONE', #53, 12.69999999999999900, 0.7715830491165561700 ) ;
#216 = ORIENTED_EDGE ( 'NONE', *, *, #116, .F. ) ;
#217 = ORIENTED_EDGE ( 'NONE', *, *, #212, .F. ) ;
#218 = EDGE_CURVE ( 'NONE', #350, #317, #60, .T. ) ;
#219 = ORIENTED_EDGE ( 'NONE', *, *, #290, .F. ) ;
#220 = FACE_OUTER_BOUND ( 'NONE', #244, .T. ) ;
#221 = DIRECTION ( 'NONE',  ( 0.0000000000000000000, 0.0000000000000000000, -1.000000000000000000 ) ) ;
#222 = PERSON_AND_ORGANIZATION ( #289, #120 ) ;
#223 = DIRECTION ( 'NONE',  ( 0.0000000000000000000, 0.0000000000000000000, -1.000000000000000000 ) ) ;
#224 = LOCAL_TIME ( 16, 46, 35.00000000000000000, #351 ) ;
#225 = PERSON_AND_ORGANIZATION ( #289, #120 ) ;
#226 = VERTEX_POINT ( 'NONE', #73 ) ;
#227 = AXIS2_PLACEMENT_3D ( 'NONE', #90, #41, #321 ) ;
#228 = DATE_AND_TIME ( #342, #165 ) ;
#229 = EDGE_CURVE ( 'NONE', #183, #21, #107, .T. ) ;
#230 = ORIENTED_EDGE ( 'NONE', *, *, #229, .F. ) ;
#231 = DIRECTION ( 'NONE',  ( -0.0000000000000000000, -0.0000000000000000000, 1.000000000000000000 ) ) ;
#232 = DIRECTION ( 'NONE',  ( -0.6972708537311765900, 0.0000000000000000000, -0.7168077542388866500 ) ) ;
#233 = AXIS2_PLACEMENT_3D ( 'NONE', #184, #59, #13 ) ;
#234 = CARTESIAN_POINT ( 'NONE',  ( 0.0000000000000000000, 0.0000000000000000000, -458.5000000000000000 ) ) ;
#235 = ADVANCED_FACE ( 'NONE', ( #101 ), #310, .T. ) ;
#236 = EDGE_CURVE ( 'NONE', #183, #190, #65, .T. ) ;
#237 = ORIENTED_EDGE ( 'NONE', *, *, #267, .F. ) ;
#238 = CARTESIAN_POINT ( 'NONE',  ( 0.0000000000000000000, 2.814850667840191200E-014, -1.199999999999978900 ) ) ;
#239 = AXIS2_PLACEMENT_3D ( 'NONE', #63, #324, #169 ) ;
#240 = CYLINDRICAL_SURFACE ( 'NONE', #114, 12.69999999999999900 ) ;
#241 = EDGE_CURVE ( 'NONE', #319, #350, #302, .T. ) ;
#242 = DIRECTION ( 'NONE',  ( 1.000000000000000000, 0.0000000000000000000, 0.0000000000000000000 ) ) ;
#243 = DIRECTION ( 'NONE',  ( -1.000000000000000000, 0.0000000000000000000, 0.0000000000000000000 ) ) ;
#244 = EDGE_LOOP ( 'NONE', ( #175, #339, #182, #119, #219 ) ) ;
#245 = EDGE_LOOP ( 'NONE', ( #237, #186, #128, #144, #297 ) ) ;
#246 = CARTESIAN_POINT ( 'NONE',  ( 0.0000000000000000000, 0.0000000000000000000, 1.200000000000000000 ) ) ;
#247 = DIRECTION ( 'NONE',  ( 0.0000000000000000000, 1.000000000000000000, 0.0000000000000000000 ) ) ;
#248 = DATE_AND_TIME ( #167, #275 ) ;
#249 = DIRECTION ( 'NONE',  ( -1.000000000000000000, 0.0000000000000000000, 0.0000000000000000000 ) ) ;
#250 = CC_DESIGN_APPROVAL ( #287, ( #301 ) ) ;
#251 = ORIENTED_EDGE ( 'NONE', *, *, #236, .T. ) ;
#252 = EDGE_CURVE ( 'NONE', #121, #140, #196, .T. ) ;
#253 = DIRECTION ( 'NONE',  ( 1.000000000000000000, 0.0000000000000000000, 0.0000000000000000000 ) ) ;
#254 = DIRECTION ( 'NONE',  ( 1.000000000000000000, 0.0000000000000000000, 0.0000000000000000000 ) ) ;
#255 = CARTESIAN_POINT ( 'NONE',  ( -12.45016336376358300, 0.0000000000000000000, 1.031373719157069300 ) ) ;
#256 = CARTESIAN_POINT ( 'NONE',  ( -12.69999999999999900, 1.555301434917138400E-015, -0.7745368856813537000 ) ) ;
#257 = ORIENTED_EDGE ( 'NONE', *, *, #294, .T. ) ;
#258 = DIRECTION ( 'NONE',  ( -0.0000000000000000000, -0.0000000000000000000, 1.000000000000000000 ) ) ;
#259 = EDGE_CURVE ( 'NONE', #226, #183, #108, .T. ) ;
#260 = DIRECTION ( 'NONE',  ( 0.0000000000000000000, 0.0000000000000000000, -1.000000000000000000 ) ) ;
#261 = ORIENTED_EDGE ( 'NONE', *, *, #218, .T. ) ;
#262 = DIRECTION ( 'NONE',  ( -0.0000000000000000000, -0.0000000000000000000, 1.000000000000000000 ) ) ;
#263 = VERTEX_POINT ( 'NONE', #178 ) ;
#264 = CIRCLE ( 'NONE', #170, 12.45016336376357400 ) ;
#265 = VECTOR ( 'NONE', #281, 1000.000000000000000 ) ;
#266 = DIRECTION ( 'NONE',  ( -0.0000000000000000000, -0.0000000000000000000, 1.000000000000000000 ) ) ;
#267 = EDGE_CURVE ( 'NONE', #140, #350, #93, .T. ) ;
#268 = CARTESIAN_POINT ( 'NONE',  ( 0.0000000000000000000, 0.0000000000000000000, 458.5000000000000000 ) ) ;
#269 = DIRECTION ( 'NONE',  ( -0.0000000000000000000, -0.0000000000000000000, 1.000000000000000000 ) ) ;
#270 = DIRECTION ( 'NONE',  ( 0.6972708537311765900, 8.539105191606277500E-017, -0.7168077542388866500 ) ) ;
#271 = DIRECTION ( 'NONE',  ( 1.000000000000000000, -0.0000000000000000000, 0.0000000000000000000 ) ) ;
#272 = EDGE_CURVE ( 'NONE', #317, #125, #123, .T. ) ;
#273 = EDGE_LOOP ( 'NONE', ( #71, #283, #261, #353 ) ) ;
#274 = ADVANCED_BREP_SHAPE_REPRESENTATION ( '4328-E0W', ( #96, #344 ), #149 ) ;
#275 = LOCAL_TIME ( 16, 46, 35.00000000000000000, #299 ) ;
#276 = DIRECTION ( 'NONE',  ( 1.000000000000000000, 0.0000000000000000000, 0.0000000000000000000 ) ) ;
#277 = AXIS2_PLACEMENT_3D ( 'NONE', #126, #266, #276 ) ;
#278 = CARTESIAN_POINT ( 'NONE',  ( 0.0000000000000000000, 0.0000000000000000000, -458.5000000000000000 ) ) ;
#279 = FACE_OUTER_BOUND ( 'NONE', #323, .T. ) ;
#280 = PERSON_AND_ORGANIZATION_ROLE ( 'design_supplier' ) ;
#281 = DIRECTION ( 'NONE',  ( 0.6972708537312064500, 0.0000000000000000000, 0.7168077542388576800 ) ) ;
#282 = AXIS2_PLACEMENT_3D ( 'NONE', #127, #22, #313 ) ;
#283 = ORIENTED_EDGE ( 'NONE', *, *, #241, .T. ) ;
#284 = ADVANCED_FACE ( 'NONE', ( #359 ), #133, .T. ) ;
#285 = LINE ( 'NONE', #17, #100 ) ;
#286 = EDGE_CURVE ( 'NONE', #154, #263, #34, .T. ) ;
#287 = APPROVAL ( #358, 'UNSPECIFIED' ) ;
#288 = PERSON_AND_ORGANIZATION ( #289, #120 ) ;
#289 = PERSON ( 'UNSPECIFIED', 'UNSPECIFIED', 'UNSPECIFIED', ('UNSPECIFIED'), ('UNSPECIFIED'), ('UNSPECIFIED') ) ;
#290 = EDGE_CURVE ( 'NONE', #147, #125, #29, .T. ) ;
#291 = APPROVAL_DATE_TIME ( #248, #287 ) ;
#292 = CARTESIAN_POINT ( 'NONE',  ( 0.0000000000000000000, 0.0000000000000000000, -0.7745368856813537000 ) ) ;
#293 = CC_DESIGN_DATE_AND_TIME_ASSIGNMENT ( #228, #188, ( #8 ) ) ;
#294 = EDGE_CURVE ( 'NONE', #319, #121, #97, .T. ) ;
#295 = ORIENTED_EDGE ( 'NONE', *, *, #357, .F. ) ;
#296 = APPLICATION_PROTOCOL_DEFINITION ( 'international standard', 'config_control_design', 1994, #336 ) ;
#297 = ORIENTED_EDGE ( 'NONE', *, *, #218, .F. ) ;
#298 = ORIENTED_EDGE ( 'NONE', *, *, #357, .T. ) ;
#299 = COORDINATED_UNIVERSAL_TIME_OFFSET ( 5, 0, .BEHIND. ) ;
#300 = LOCAL_TIME ( 16, 46, 35.00000000000000000, #150 ) ;
#301 = PRODUCT_DEFINITION_FORMATION_WITH_SPECIFIED_SOURCE ( 'ANY', '', #50, .NOT_KNOWN. ) ;
#302 = CIRCLE ( 'NONE', #177, 459.6999999999999900 ) ;
#303 = ORIENTED_EDGE ( 'NONE', *, *, #1, .F. ) ;
#304 =( NAMED_UNIT ( * ) PLANE_ANGLE_UNIT ( ) SI_UNIT ( $, .RADIAN. ) );
#305 = APPROVAL_ROLE ( '' ) ;
#306 = COORDINATED_UNIVERSAL_TIME_OFFSET ( 5, 0, .BEHIND. ) ;
#307 = CALENDAR_DATE ( 2015, 17, 6 ) ;
#308 = ADVANCED_FACE ( 'NONE', ( #84 ), #19, .T. ) ;
#309 = ORIENTED_EDGE ( 'NONE', *, *, #241, .F. ) ;
#310 = SPHERICAL_SURFACE ( 'NONE', #146, 459.6999999999999900 ) ;
#311 = PERSON_AND_ORGANIZATION_ROLE ( 'creator' ) ;
#312 = DESIGN_CONTEXT ( 'detailed design', #363, 'design' ) ;
#313 = DIRECTION ( 'NONE',  ( -1.224646799147353200E-016, -1.000000000000000000, 0.0000000000000000000 ) ) ;
#314 = EDGE_LOOP ( 'NONE', ( #303, #216, #156, #134, #138 ) ) ;
#315 = CC_DESIGN_PERSON_AND_ORGANIZATION_ASSIGNMENT ( #222, #311, ( #8 ) ) ;
#316 = CARTESIAN_POINT ( 'NONE',  ( 0.0000000000000000000, 0.0000000000000000000, 0.0000000000000000000 ) ) ;
#317 = VERTEX_POINT ( 'NONE', #325 ) ;
#318 = EDGE_LOOP ( 'NONE', ( #35, #76, #326, #214 ) ) ;
#319 = VERTEX_POINT ( 'NONE', #238 ) ;
#320 = SPHERICAL_SURFACE ( 'NONE', #179, 459.6999999999999900 ) ;
#321 = DIRECTION ( 'NONE',  ( 1.000000000000000000, 0.0000000000000000000, 0.0000000000000000000 ) ) ;
#322 = DIRECTION ( 'NONE',  ( 0.0000000000000000000, 1.000000000000000000, 0.0000000000000000000 ) ) ;
#323 = EDGE_LOOP ( 'NONE', ( #348, #3, #80, #163, #230 ) ) ;
#324 = DIRECTION ( 'NONE',  ( -1.000000000000000000, 0.0000000000000000000, 0.0000000000000000000 ) ) ;
#325 = CARTESIAN_POINT ( 'NONE',  ( 12.45016336376355200, 0.0000000000000000000, -1.031373719157069300 ) ) ;
#326 = ORIENTED_EDGE ( 'NONE', *, *, #212, .T. ) ;
#327 = FACE_OUTER_BOUND ( 'NONE', #160, .T. ) ;
#328 = ORIENTED_EDGE ( 'NONE', *, *, #361, .T. ) ;
#329 = CONICAL_SURFACE ( 'NONE', #16, 12.45016336376358300, 0.7715830491165145400 ) ;
#330 = COORDINATED_UNIVERSAL_TIME_OFFSET ( 5, 0, .BEHIND. ) ;
#331 = CARTESIAN_POINT ( 'NONE',  ( 0.0000000000000000000, 12.45016336376331100, -1.031373719157097100 ) ) ;
#332 = DIRECTION ( 'NONE',  ( 1.000000000000000000, 0.0000000000000000000, 0.0000000000000000000 ) ) ;
#333 = EDGE_LOOP ( 'NONE', ( #295, #103, #328, #66 ) ) ;
#334 = ADVANCED_FACE ( 'NONE', ( #327 ), #111, .T. ) ;
#335 = APPROVAL_STATUS ( 'not_yet_approved' ) ;
#336 = APPLICATION_CONTEXT ( 'configuration controlled 3d designs of mechanical parts and assemblies' ) ;
#337 = AXIS2_PLACEMENT_3D ( 'NONE', #292, #161, #253 ) ;
#338 = CARTESIAN_POINT ( 'NONE',  ( 0.0000000000000000000, 0.0000000000000000000, 458.5000000000000000 ) ) ;
#339 = ORIENTED_EDGE ( 'NONE', *, *, #252, .F. ) ;
#340 = CYLINDRICAL_SURFACE ( 'NONE', #75, 12.69999999999999900 ) ;
#341 = LINE ( 'NONE', #255, #129 ) ;
#342 = CALENDAR_DATE ( 2015, 17, 6 ) ;
#343 = DIRECTION ( 'NONE',  ( -1.000000000000000000, 0.0000000000000000000, 0.0000000000000000000 ) ) ;
#344 = AXIS2_PLACEMENT_3D ( 'NONE', #316, #88, #352 ) ;
#345 = PERSON_AND_ORGANIZATION ( #289, #120 ) ;
#346 = SECURITY_CLASSIFICATION_LEVEL ( 'unclassified' ) ;
#347 = VECTOR ( 'NONE', #87, 1000.000000000000000 ) ;
#348 = ORIENTED_EDGE ( 'NONE', *, *, #259, .F. ) ;
#349 = EDGE_CURVE ( 'NONE', #125, #147, #9, .T. ) ;
#350 = VERTEX_POINT ( 'NONE', #331 ) ;
#351 = COORDINATED_UNIVERSAL_TIME_OFFSET ( 5, 0, .BEHIND. ) ;
#352 = DIRECTION ( 'NONE',  ( 1.000000000000000000, 0.0000000000000000000, 0.0000000000000000000 ) ) ;
#353 = ORIENTED_EDGE ( 'NONE', *, *, #122, .T. ) ;
#354 = CARTESIAN_POINT ( 'NONE',  ( 0.0000000000000000000, 0.0000000000000000000, 1.031373719157069300 ) ) ;
#355 = CARTESIAN_POINT ( 'NONE',  ( -12.45016336376357400, 0.0000000000000000000, 1.031373719157069300 ) ) ;
#356 = CC_DESIGN_PERSON_AND_ORGANIZATION_ASSIGNMENT ( #225, #181, ( #50 ) ) ;
#357 = EDGE_CURVE ( 'NONE', #147, #263, #91, .T. ) ;
#358 = APPROVAL_STATUS ( 'not_yet_approved' ) ;
#359 = FACE_OUTER_BOUND ( 'NONE', #245, .T. ) ;
#360 = VERTEX_POINT ( 'NONE', #54 ) ;
#361 = EDGE_CURVE ( 'NONE', #125, #154, #137, .T. ) ;
#362 = PERSON_AND_ORGANIZATION_ROLE ( 'creator' ) ;
#363 = APPLICATION_CONTEXT ( 'configuration controlled 3d designs of mechanical parts and assemblies' ) ;
#364 = APPROVAL ( #365, 'UNSPECIFIED' ) ;
#365 = APPROVAL_STATUS ( 'not_yet_approved' ) ;
#366 = VECTOR ( 'NONE', #258, 1000.000000000000000 ) ;
#367 = CARTESIAN_POINT ( 'NONE',  ( 12.69999999999999900, 0.0000000000000000000, 1.200000000000000000 ) ) ;
ENDSEC;
END-ISO-10303-21;
